ISO-10303-21;
HEADER;
FILE_DESCRIPTION (( 'STEP AP203' ),
    '1' );
FILE_NAME ('58f1.STEP',
    '2022-07-07T09:39:31',
    ( '' ),
    ( '' ),
    'SwSTEP 2.0',
    'SolidWorks 2019',
    '' );
FILE_SCHEMA (( 'CONFIG_CONTROL_DESIGN' ));
ENDSEC;

DATA;
#1 = DIRECTION ( 'NONE',  ( -0.000000000000000000, -0.000000000000000000, -1.000000000000000000 ) ) ;
#2 = CC_DESIGN_APPROVAL ( #240, ( #210 ) ) ;
#3 = LINE ( 'NONE', #117, #195 ) ;
#4 = CARTESIAN_POINT ( 'NONE',  ( 0.000000000000000000, 0.000000000000000000, 1206.999999999999773 ) ) ;
#5 = AXIS2_PLACEMENT_3D ( 'NONE', #115, #307, #276 ) ;
#6 = CARTESIAN_POINT ( 'NONE',  ( 0.000000000000000000, 0.000000000000000000, 0.000000000000000000 ) ) ;
#7 = APPROVAL ( #173, 'NEURÈENÝ' ) ;
#8 = CIRCLE ( 'NONE', #148, 11.00000000000000000 ) ;
#9 =( NAMED_UNIT ( * ) PLANE_ANGLE_UNIT ( ) SI_UNIT ( $, .RADIAN. ) );
#10 = PERSON_AND_ORGANIZATION_ROLE ( 'creator' ) ;
#11 = APPROVAL_STATUS ( 'not_yet_approved' ) ;
#12 = CC_DESIGN_PERSON_AND_ORGANIZATION_ASSIGNMENT ( #197, #224, ( #85 ) ) ;
#13 = APPROVAL_ROLE ( '' ) ;
#14 = ORIENTED_EDGE ( 'NONE', *, *, #79, .F. ) ;
#15 = ORIENTED_EDGE ( 'NONE', *, *, #284, .F. ) ;
#16 = ADVANCED_FACE ( 'NONE', ( #260 ), #232, .F. ) ;
#17 = DIRECTION ( 'NONE',  ( -0.000000000000000000, -0.000000000000000000, -1.000000000000000000 ) ) ;
#18 = VERTEX_POINT ( 'NONE', #280 ) ;
#19 = VERTEX_POINT ( 'NONE', #82 ) ;
#20 = FACE_BOUND ( 'NONE', #112, .T. ) ;
#21 = ORIENTED_EDGE ( 'NONE', *, *, #199, .T. ) ;
#22 = AXIS2_PLACEMENT_3D ( 'NONE', #119, #93, #68 ) ;
#23 = CARTESIAN_POINT ( 'NONE',  ( -11.00000000000000000, 0.000000000000000000, 7.000000000000000000 ) ) ;
#24 = DIRECTION ( 'NONE',  ( 1.000000000000000000, 0.000000000000000000, 0.000000000000000000 ) ) ;
#25 = DIRECTION ( 'NONE',  ( 1.000000000000000000, 0.000000000000000000, 0.000000000000000000 ) ) ;
#26 = ADVANCED_FACE ( 'NONE', ( #180 ), #192, .F. ) ;
#27 = MECHANICAL_CONTEXT ( 'NONE', #70, 'mechanical' ) ;
#28 = APPROVAL ( #32, 'NEURÈENÝ' ) ;
#29 = LOCAL_TIME ( 11, 39, 31.00000000000000000, #126 ) ;
#30 = PERSON_AND_ORGANIZATION_ROLE ( 'creator' ) ;
#31 = DIRECTION ( 'NONE',  ( 1.000000000000000000, 0.000000000000000000, 0.000000000000000000 ) ) ;
#32 = APPROVAL_STATUS ( 'not_yet_approved' ) ;
#33 = SECURITY_CLASSIFICATION ( '', '', #274 ) ;
#34 = DATE_TIME_ROLE ( 'classification_date' ) ;
#35 = ORIENTED_EDGE ( 'NONE', *, *, #121, .F. ) ;
#36 = DIRECTION ( 'NONE',  ( 0.000000000000000000, 0.000000000000000000, 1.000000000000000000 ) ) ;
#37 = VECTOR ( 'NONE', #258, 1000.000000000000000 ) ;
#38 = EDGE_LOOP ( 'NONE', ( #56, #235 ) ) ;
#39 = CARTESIAN_POINT ( 'NONE',  ( -7.200000000000001066, 8.817456953860944275E-16, 7.000000000000047962 ) ) ;
#40 = ORIENTED_EDGE ( 'NONE', *, *, #227, .T. ) ;
#41 = DIRECTION ( 'NONE',  ( 1.000000000000000000, 0.000000000000000000, -0.000000000000000000 ) ) ;
#42 = CARTESIAN_POINT ( 'NONE',  ( 7.000000000000000888, 8.572527594031474176E-16, 1206.999999999999773 ) ) ;
#43 = CARTESIAN_POINT ( 'NONE',  ( -11.00000000000000000, 0.000000000000000000, 7.000000000000000000 ) ) ;
#44 = DIRECTION ( 'NONE',  ( 0.000000000000000000, 0.000000000000000000, 1.000000000000000000 ) ) ;
#45 = CARTESIAN_POINT ( 'NONE',  ( 0.000000000000000000, 0.000000000000000000, 7.000000000000000000 ) ) ;
#46 = CARTESIAN_POINT ( 'NONE',  ( 0.000000000000000000, 0.000000000000000000, 0.000000000000000000 ) ) ;
#47 = CIRCLE ( 'NONE', #171, 11.00000000000000000 ) ;
#48 = CARTESIAN_POINT ( 'NONE',  ( 7.200000000000001066, 0.000000000000000000, 7.200000000000095213 ) ) ;
#49 = FACE_OUTER_BOUND ( 'NONE', #177, .T. ) ;
#50 = ADVANCED_FACE ( 'NONE', ( #20, #178 ), #212, .T. ) ;
#51 = PERSON_AND_ORGANIZATION_ROLE ( 'design_supplier' ) ;
#52 = APPROVAL_DATE_TIME ( #295, #7 ) ;
#53 = DATE_TIME_ROLE ( 'creation_date' ) ;
#54 = AXIS2_PLACEMENT_3D ( 'NONE', #151, #84, #133 ) ;
#55 = CC_DESIGN_DATE_AND_TIME_ASSIGNMENT ( #244, #53, ( #210 ) ) ;
#56 = ORIENTED_EDGE ( 'NONE', *, *, #222, .T. ) ;
#57 = CARTESIAN_POINT ( 'NONE',  ( -7.000000000000000888, 0.000000000000000000, 7.200000000000095213 ) ) ;
#58 = DIRECTION ( 'NONE',  ( 1.000000000000000000, 0.000000000000000000, 0.000000000000000000 ) ) ;
#59 = AXIS2_PLACEMENT_3D ( 'NONE', #252, #257, #61 ) ;
#60 = LOCAL_TIME ( 11, 39, 31.00000000000000000, #296 ) ;
#61 = DIRECTION ( 'NONE',  ( 1.000000000000000000, 0.000000000000000000, 0.000000000000000000 ) ) ;
#62 = CARTESIAN_POINT ( 'NONE',  ( -7.000000000000000888, 0.000000000000000000, 1206.999999999999773 ) ) ;
#63 = ORIENTED_EDGE ( 'NONE', *, *, #277, .F. ) ;
#64 = CARTESIAN_POINT ( 'NONE',  ( -7.000000000000000888, 0.000000000000000000, 1206.999999999999773 ) ) ;
#65 = AXIS2_PLACEMENT_3D ( 'NONE', #136, #153, #233 ) ;
#66 = CYLINDRICAL_SURFACE ( 'NONE', #22, 7.000000000000000888 ) ;
#67 = CC_DESIGN_APPROVAL ( #28, ( #33 ) ) ;
#68 = DIRECTION ( 'NONE',  ( -1.000000000000000000, 0.000000000000000000, 0.000000000000000000 ) ) ;
#69 = CARTESIAN_POINT ( 'NONE',  ( 0.000000000000000000, 0.000000000000000000, 1206.999999999999773 ) ) ;
#70 = APPLICATION_CONTEXT ( 'configuration controlled 3d designs of mechanical parts and assemblies' ) ;
#71 = EDGE_CURVE ( 'NONE', #138, #150, #282, .T. ) ;
#72 = DIRECTION ( 'NONE',  ( 0.000000000000000000, 0.000000000000000000, 1.000000000000000000 ) ) ;
#73 = CIRCLE ( 'NONE', #270, 7.000000000000000888 ) ;
#74 = APPROVAL_ROLE ( '' ) ;
#75 = APPLICATION_PROTOCOL_DEFINITION ( 'international standard', 'config_control_design', 1994, #70 ) ;
#76 = CC_DESIGN_DATE_AND_TIME_ASSIGNMENT ( #174, #34, ( #33 ) ) ;
#77 = PRODUCT_DEFINITION_FORMATION_WITH_SPECIFIED_SOURCE ( 'LIBOVOLNÝ', '', #85, .NOT_KNOWN. ) ;
#78 = CALENDAR_DATE ( 2022, 7, 7 ) ;
#79 = EDGE_CURVE ( 'NONE', #18, #110, #156, .T. ) ;
#80 = ORIENTED_EDGE ( 'NONE', *, *, #236, .T. ) ;
#81 = LOCAL_TIME ( 11, 39, 31.00000000000000000, #223 ) ;
#82 = CARTESIAN_POINT ( 'NONE',  ( 7.200000000000001066, 0.000000000000000000, 7.000000000000047962 ) ) ;
#83 = ORIENTED_EDGE ( 'NONE', *, *, #79, .T. ) ;
#84 = DIRECTION ( 'NONE',  ( -0.000000000000000000, -0.000000000000000000, -1.000000000000000000 ) ) ;
#85 = PRODUCT ( '58f1', '58f1', '', ( #27 ) ) ;
#86 = ORIENTED_EDGE ( 'NONE', *, *, #71, .T. ) ;
#87 = DIRECTION ( 'NONE',  ( 1.000000000000000000, 0.000000000000000000, -0.000000000000000000 ) ) ;
#88 = VERTEX_POINT ( 'NONE', #42 ) ;
#89 = PERSON ( 'NEURÈENÝ', 'NEURÈENÝ', 'NEURÈENÝ', ('NEURÈENÝ'), ('NEURÈENÝ'), ('NEURÈENÝ') ) ;
#90 = CARTESIAN_POINT ( 'NONE',  ( -7.200000000000001066, 8.817456953860944275E-16, 7.200000000000095213 ) ) ;
#91 = EDGE_CURVE ( 'NONE', #19, #135, #217, .T. ) ;
#92 = CARTESIAN_POINT ( 'NONE',  ( 0.000000000000000000, 0.000000000000000000, 1206.999999999999773 ) ) ;
#93 = DIRECTION ( 'NONE',  ( -0.000000000000000000, -0.000000000000000000, -1.000000000000000000 ) ) ;
#94 = AXIS2_PLACEMENT_3D ( 'NONE', #239, #267, #191 ) ;
#95 = AXIS2_PLACEMENT_3D ( 'NONE', #140, #158, #218 ) ;
#96 = DIRECTION ( 'NONE',  ( 1.000000000000000000, 0.000000000000000000, 0.000000000000000000 ) ) ;
#97 = EDGE_CURVE ( 'NONE', #211, #150, #161, .T. ) ;
#98 = FACE_OUTER_BOUND ( 'NONE', #278, .T. ) ;
#99 = DIRECTION ( 'NONE',  ( 0.000000000000000000, 0.000000000000000000, 1.000000000000000000 ) ) ;
#100 = AXIS2_PLACEMENT_3D ( 'NONE', #46, #291, #186 ) ;
#101 =( NAMED_UNIT ( * ) SI_UNIT ( $, .STERADIAN. ) SOLID_ANGLE_UNIT ( ) );
#102 = DIRECTION ( 'NONE',  ( 0.000000000000000000, 0.000000000000000000, 1.000000000000000000 ) ) ;
#103 = CALENDAR_DATE ( 2022, 7, 7 ) ;
#104 = DATE_AND_TIME ( #103, #81 ) ;
#105 = PERSON_AND_ORGANIZATION ( #89, #250 ) ;
#106 = ORIENTED_EDGE ( 'NONE', *, *, #261, .F. ) ;
#107 = EDGE_LOOP ( 'NONE', ( #203, #83, #40, #182 ) ) ;
#108 = CC_DESIGN_SECURITY_CLASSIFICATION ( #33, ( #77 ) ) ;
#109 = CARTESIAN_POINT ( 'NONE',  ( 11.00000000000000000, 1.347111479062088405E-15, 0.000000000000000000 ) ) ;
#110 = VERTEX_POINT ( 'NONE', #109 ) ;
#111 = ORIENTED_EDGE ( 'NONE', *, *, #91, .F. ) ;
#112 = EDGE_LOOP ( 'NONE', ( #306, #205 ) ) ;
#113 = TOROIDAL_SURFACE ( 'NONE', #5, 7.200000000000001066, 0.2000000000000000111 ) ;
#114 = AXIS2_PLACEMENT_3D ( 'NONE', #92, #1, #139 ) ;
#115 = CARTESIAN_POINT ( 'NONE',  ( 0.000000000000000000, 0.000000000000000000, 7.200000000000095213 ) ) ;
#116 = ADVANCED_FACE ( 'NONE', ( #208 ), #113, .F. ) ;
#117 = CARTESIAN_POINT ( 'NONE',  ( 7.000000000000000888, 8.572527594031474176E-16, 1206.999999999999773 ) ) ;
#118 = APPLICATION_CONTEXT ( 'configuration controlled 3d designs of mechanical parts and assemblies' ) ;
#119 = CARTESIAN_POINT ( 'NONE',  ( 0.000000000000000000, 0.000000000000000000, 1206.999999999999773 ) ) ;
#120 = AXIS2_PLACEMENT_3D ( 'NONE', #90, #255, #285 ) ;
#121 = EDGE_CURVE ( 'NONE', #150, #135, #290, .T. ) ;
#122 = DIRECTION ( 'NONE',  ( -1.000000000000000000, 0.000000000000000000, 0.000000000000000000 ) ) ;
#123 = DIRECTION ( 'NONE',  ( 0.000000000000000000, 0.000000000000000000, 1.000000000000000000 ) ) ;
#124 = DESIGN_CONTEXT ( 'detailed design', #118, 'design' ) ;
#125 = CARTESIAN_POINT ( 'NONE',  ( 0.000000000000000000, 0.000000000000000000, 1206.999999999999773 ) ) ;
#126 = COORDINATED_UNIVERSAL_TIME_OFFSET ( 1, 0, .AHEAD. ) ;
#127 = PERSON_AND_ORGANIZATION_ROLE ( 'classification_officer' ) ;
#128 = PRODUCT_RELATED_PRODUCT_CATEGORY ( 'detail', '', ( #85 ) ) ;
#129 = DATE_AND_TIME ( #78, #60 ) ;
#130 = CARTESIAN_POINT ( 'NONE',  ( 11.00000000000000000, 1.347111479062088405E-15, 7.000000000000000000 ) ) ;
#131 = PRODUCT_DEFINITION_SHAPE ( 'NONE', 'NONE',  #210 ) ;
#132 = AXIS2_PLACEMENT_3D ( 'NONE', #6, #194, #293 ) ;
#133 = DIRECTION ( 'NONE',  ( 1.000000000000000000, 0.000000000000000000, 0.000000000000000000 ) ) ;
#134 = EDGE_LOOP ( 'NONE', ( #63, #21, #207, #279 ) ) ;
#135 = VERTEX_POINT ( 'NONE', #39 ) ;
#136 = CARTESIAN_POINT ( 'NONE',  ( 0.000000000000000000, 0.000000000000000000, 7.200000000000095213 ) ) ;
#137 = CIRCLE ( 'NONE', #95, 7.000000000000000888 ) ;
#138 = VERTEX_POINT ( 'NONE', #64 ) ;
#139 = DIRECTION ( 'NONE',  ( -1.000000000000000000, 0.000000000000000000, 0.000000000000000000 ) ) ;
#140 = CARTESIAN_POINT ( 'NONE',  ( 0.000000000000000000, 0.000000000000000000, 7.200000000000095213 ) ) ;
#141 = CARTESIAN_POINT ( 'NONE',  ( 0.000000000000000000, 0.000000000000000000, 7.000000000000000000 ) ) ;
#142 =( LENGTH_UNIT ( ) NAMED_UNIT ( * ) SI_UNIT ( .MILLI., .METRE. ) );
#143 = CC_DESIGN_PERSON_AND_ORGANIZATION_ASSIGNMENT ( #147, #30, ( #77 ) ) ;
#144 = CALENDAR_DATE ( 2022, 7, 7 ) ;
#145 = CARTESIAN_POINT ( 'NONE',  ( 0.000000000000000000, 0.000000000000000000, 0.000000000000000000 ) ) ;
#146 = CC_DESIGN_PERSON_AND_ORGANIZATION_ASSIGNMENT ( #166, #10, ( #210 ) ) ;
#147 = PERSON_AND_ORGANIZATION ( #89, #250 ) ;
#148 = AXIS2_PLACEMENT_3D ( 'NONE', #141, #162, #25 ) ;
#149 = VERTEX_POINT ( 'NONE', #43 ) ;
#150 = VERTEX_POINT ( 'NONE', #57 ) ;
#151 = CARTESIAN_POINT ( 'NONE',  ( 0.000000000000000000, 0.000000000000000000, 7.000000000000000000 ) ) ;
#152 = ORIENTED_EDGE ( 'NONE', *, *, #222, .F. ) ;
#153 = DIRECTION ( 'NONE',  ( 0.000000000000000000, 0.000000000000000000, 1.000000000000000000 ) ) ;
#154 = EDGE_LOOP ( 'NONE', ( #106, #301, #111, #185 ) ) ;
#155 = DIRECTION ( 'NONE',  ( -0.000000000000000000, -0.000000000000000000, -1.000000000000000000 ) ) ;
#156 = LINE ( 'NONE', #130, #37 ) ;
#157 = CC_DESIGN_APPROVAL ( #7, ( #77 ) ) ;
#158 = DIRECTION ( 'NONE',  ( 0.000000000000000000, 0.000000000000000000, 1.000000000000000000 ) ) ;
#159 = CYLINDRICAL_SURFACE ( 'NONE', #187, 11.00000000000000000 ) ;
#160 = DIRECTION ( 'NONE',  ( 1.000000000000000000, 0.000000000000000000, 0.000000000000000000 ) ) ;
#161 = CIRCLE ( 'NONE', #65, 7.000000000000000888 ) ;
#162 = DIRECTION ( 'NONE',  ( 0.000000000000000000, 0.000000000000000000, 1.000000000000000000 ) ) ;
#163 = CIRCLE ( 'NONE', #132, 11.00000000000000000 ) ;
#164 = EDGE_CURVE ( 'NONE', #135, #19, #238, .T. ) ;
#165 = DIRECTION ( 'NONE',  ( 0.000000000000000000, 0.000000000000000000, -1.000000000000000000 ) ) ;
#166 = PERSON_AND_ORGANIZATION ( #89, #250 ) ;
#167 = ADVANCED_BREP_SHAPE_REPRESENTATION ( '58f1', ( #272, #176 ), #304 ) ;
#168 = AXIS2_PLACEMENT_3D ( 'NONE', #303, #36, #87 ) ;
#169 = AXIS2_PLACEMENT_3D ( 'NONE', #183, #299, #41 ) ;
#170 = APPLICATION_PROTOCOL_DEFINITION ( 'international standard', 'config_control_design', 1994, #118 ) ;
#171 = AXIS2_PLACEMENT_3D ( 'NONE', #45, #99, #96 ) ;
#172 = ADVANCED_FACE ( 'NONE', ( #98 ), #66, .T. ) ;
#173 = APPROVAL_STATUS ( 'not_yet_approved' ) ;
#174 = DATE_AND_TIME ( #247, #29 ) ;
#175 = ORIENTED_EDGE ( 'NONE', *, *, #284, .T. ) ;
#176 = AXIS2_PLACEMENT_3D ( 'NONE', #145, #102, #31 ) ;
#177 = EDGE_LOOP ( 'NONE', ( #14, #15, #209, #254 ) ) ;
#178 = FACE_OUTER_BOUND ( 'NONE', #184, .T. ) ;
#179 = ORIENTED_EDGE ( 'NONE', *, *, #193, .T. ) ;
#180 = FACE_OUTER_BOUND ( 'NONE', #302, .T. ) ;
#181 = ADVANCED_FACE ( 'NONE', ( #265 ), #159, .T. ) ;
#182 = ORIENTED_EDGE ( 'NONE', *, *, #249, .F. ) ;
#183 = CARTESIAN_POINT ( 'NONE',  ( 0.000000000000000000, 0.000000000000000000, 0.000000000000000000 ) ) ;
#184 = EDGE_LOOP ( 'NONE', ( #175, #179 ) ) ;
#185 = ORIENTED_EDGE ( 'NONE', *, *, #236, .F. ) ;
#186 = DIRECTION ( 'NONE',  ( 1.000000000000000000, 0.000000000000000000, 0.000000000000000000 ) ) ;
#187 = AXIS2_PLACEMENT_3D ( 'NONE', #241, #243, #122 ) ;
#188 = DIRECTION ( 'NONE',  ( -0.000000000000000000, -0.000000000000000000, -1.000000000000000000 ) ) ;
#189 = ADVANCED_FACE ( 'NONE', ( #49 ), #264, .T. ) ;
#190 = FACE_OUTER_BOUND ( 'NONE', #134, .T. ) ;
#191 = DIRECTION ( 'NONE',  ( -1.000000000000000000, 0.000000000000000000, 0.000000000000000000 ) ) ;
#192 = TOROIDAL_SURFACE ( 'NONE', #59, 7.200000000000001066, 0.2000000000000000111 ) ;
#193 = EDGE_CURVE ( 'NONE', #18, #149, #47, .T. ) ;
#194 = DIRECTION ( 'NONE',  ( 0.000000000000000000, 0.000000000000000000, 1.000000000000000000 ) ) ;
#195 = VECTOR ( 'NONE', #188, 1000.000000000000000 ) ;
#196 = CC_DESIGN_PERSON_AND_ORGANIZATION_ASSIGNMENT ( #246, #127, ( #33 ) ) ;
#197 = PERSON_AND_ORGANIZATION ( #89, #250 ) ;
#198 = CALENDAR_DATE ( 2022, 7, 7 ) ;
#199 = EDGE_CURVE ( 'NONE', #88, #211, #3, .T. ) ;
#200 = APPROVAL_ROLE ( '' ) ;
#201 = APPROVAL_PERSON_ORGANIZATION ( #294, #240, #74 ) ;
#202 = APPROVAL_DATE_TIME ( #104, #240 ) ;
#203 = ORIENTED_EDGE ( 'NONE', *, *, #193, .F. ) ;
#204 = CLOSED_SHELL ( 'NONE', ( #116, #216, #181, #189, #50, #16, #172, #269, #26 ) ) ;
#205 = ORIENTED_EDGE ( 'NONE', *, *, #164, .T. ) ;
#206 = APPROVAL_PERSON_ORGANIZATION ( #105, #28, #13 ) ;
#207 = ORIENTED_EDGE ( 'NONE', *, *, #97, .T. ) ;
#208 = FACE_OUTER_BOUND ( 'NONE', #154, .T. ) ;
#209 = ORIENTED_EDGE ( 'NONE', *, *, #249, .T. ) ;
#210 = PRODUCT_DEFINITION ( 'NEZNÁMÝ', '', #77, #124 ) ;
#211 = VERTEX_POINT ( 'NONE', #266 ) ;
#212 = PLANE ( 'NONE',  #168 ) ;
#213 = ORIENTED_EDGE ( 'NONE', *, *, #199, .F. ) ;
#214 = AXIS2_PLACEMENT_3D ( 'NONE', #69, #123, #263 ) ;
#215 = ORIENTED_EDGE ( 'NONE', *, *, #227, .F. ) ;
#216 = ADVANCED_FACE ( 'NONE', ( #190 ), #242, .T. ) ;
#217 = CIRCLE ( 'NONE', #253, 7.200000000000001066 ) ;
#218 = DIRECTION ( 'NONE',  ( 1.000000000000000000, 0.000000000000000000, 0.000000000000000000 ) ) ;
#219 = DIRECTION ( 'NONE',  ( -0.000000000000000000, -0.000000000000000000, -1.000000000000000000 ) ) ;
#220 = FACE_OUTER_BOUND ( 'NONE', #38, .T. ) ;
#221 = CARTESIAN_POINT ( 'NONE',  ( -11.00000000000000000, 0.000000000000000000, 0.000000000000000000 ) ) ;
#222 = EDGE_CURVE ( 'NONE', #138, #88, #234, .T. ) ;
#223 = COORDINATED_UNIVERSAL_TIME_OFFSET ( 1, 0, .AHEAD. ) ;
#224 = PERSON_AND_ORGANIZATION_ROLE ( 'design_owner' ) ;
#225 = CIRCLE ( 'NONE', #281, 0.1999999999999996503 ) ;
#226 = SHAPE_DEFINITION_REPRESENTATION ( #131, #167 ) ;
#227 = EDGE_CURVE ( 'NONE', #110, #298, #292, .T. ) ;
#228 = CARTESIAN_POINT ( 'NONE',  ( 0.000000000000000000, 0.000000000000000000, 7.000000000000000000 ) ) ;
#229 = VECTOR ( 'NONE', #219, 1000.000000000000000 ) ;
#230 = ORIENTED_EDGE ( 'NONE', *, *, #261, .T. ) ;
#231 = ORIENTED_EDGE ( 'NONE', *, *, #97, .F. ) ;
#232 = PLANE ( 'NONE',  #169 ) ;
#233 = DIRECTION ( 'NONE',  ( 1.000000000000000000, 0.000000000000000000, 0.000000000000000000 ) ) ;
#234 = CIRCLE ( 'NONE', #245, 7.000000000000000888 ) ;
#235 = ORIENTED_EDGE ( 'NONE', *, *, #277, .T. ) ;
#236 = EDGE_CURVE ( 'NONE', #211, #19, #225, .T. ) ;
#237 = CC_DESIGN_PERSON_AND_ORGANIZATION_ASSIGNMENT ( #248, #51, ( #77 ) ) ;
#238 = CIRCLE ( 'NONE', #54, 7.200000000000001066 ) ;
#239 = CARTESIAN_POINT ( 'NONE',  ( 0.000000000000000000, 0.000000000000000000, 7.000000000000000000 ) ) ;
#240 = APPROVAL ( #11, 'NEURÈENÝ' ) ;
#241 = CARTESIAN_POINT ( 'NONE',  ( 0.000000000000000000, 0.000000000000000000, 7.000000000000000000 ) ) ;
#242 = CYLINDRICAL_SURFACE ( 'NONE', #114, 7.000000000000000888 ) ;
#243 = DIRECTION ( 'NONE',  ( -0.000000000000000000, -0.000000000000000000, -1.000000000000000000 ) ) ;
#244 = DATE_AND_TIME ( #144, #300 ) ;
#245 = AXIS2_PLACEMENT_3D ( 'NONE', #125, #44, #24 ) ;
#246 = PERSON_AND_ORGANIZATION ( #89, #250 ) ;
#247 = CALENDAR_DATE ( 2022, 7, 7 ) ;
#248 = PERSON_AND_ORGANIZATION ( #89, #250 ) ;
#249 = EDGE_CURVE ( 'NONE', #149, #298, #287, .T. ) ;
#250 = ORGANIZATION ( 'NEURÈENÝ', 'NEURÈENÝ', '' ) ;
#251 = EDGE_LOOP ( 'NONE', ( #283, #215 ) ) ;
#252 = CARTESIAN_POINT ( 'NONE',  ( 0.000000000000000000, 0.000000000000000000, 7.200000000000095213 ) ) ;
#253 = AXIS2_PLACEMENT_3D ( 'NONE', #228, #17, #58 ) ;
#254 = ORIENTED_EDGE ( 'NONE', *, *, #305, .T. ) ;
#255 = DIRECTION ( 'NONE',  ( 1.224646799147353207E-16, 1.000000000000000000, -0.000000000000000000 ) ) ;
#256 = APPROVAL_PERSON_ORGANIZATION ( #271, #7, #200 ) ;
#257 = DIRECTION ( 'NONE',  ( 0.000000000000000000, 0.000000000000000000, 1.000000000000000000 ) ) ;
#258 = DIRECTION ( 'NONE',  ( -0.000000000000000000, -0.000000000000000000, -1.000000000000000000 ) ) ;
#259 = VECTOR ( 'NONE', #155, 1000.000000000000000 ) ;
#260 = FACE_OUTER_BOUND ( 'NONE', #251, .T. ) ;
#261 = EDGE_CURVE ( 'NONE', #150, #211, #137, .T. ) ;
#262 = LOCAL_TIME ( 11, 39, 31.00000000000000000, #273 ) ;
#263 = DIRECTION ( 'NONE',  ( 1.000000000000000000, 0.000000000000000000, -0.000000000000000000 ) ) ;
#264 = CYLINDRICAL_SURFACE ( 'NONE', #94, 11.00000000000000000 ) ;
#265 = FACE_OUTER_BOUND ( 'NONE', #107, .T. ) ;
#266 = CARTESIAN_POINT ( 'NONE',  ( 7.000000000000000888, 8.572527594031474176E-16, 7.200000000000095213 ) ) ;
#267 = DIRECTION ( 'NONE',  ( -0.000000000000000000, -0.000000000000000000, -1.000000000000000000 ) ) ;
#268 = COORDINATED_UNIVERSAL_TIME_OFFSET ( 1, 0, .AHEAD. ) ;
#269 = ADVANCED_FACE ( 'NONE', ( #220 ), #288, .T. ) ;
#270 = AXIS2_PLACEMENT_3D ( 'NONE', #4, #72, #160 ) ;
#271 = PERSON_AND_ORGANIZATION ( #89, #250 ) ;
#272 = MANIFOLD_SOLID_BREP ( 'Zaoblit1', #204 ) ;
#273 = COORDINATED_UNIVERSAL_TIME_OFFSET ( 1, 0, .AHEAD. ) ;
#274 = SECURITY_CLASSIFICATION_LEVEL ( 'unclassified' ) ;
#275 = ORIENTED_EDGE ( 'NONE', *, *, #164, .F. ) ;
#276 = DIRECTION ( 'NONE',  ( 1.000000000000000000, 0.000000000000000000, 0.000000000000000000 ) ) ;
#277 = EDGE_CURVE ( 'NONE', #88, #138, #73, .T. ) ;
#278 = EDGE_LOOP ( 'NONE', ( #213, #152, #86, #230 ) ) ;
#279 = ORIENTED_EDGE ( 'NONE', *, *, #71, .F. ) ;
#280 = CARTESIAN_POINT ( 'NONE',  ( 11.00000000000000000, 1.347111479062088405E-15, 7.000000000000000000 ) ) ;
#281 = AXIS2_PLACEMENT_3D ( 'NONE', #48, #286, #165 ) ;
#282 = LINE ( 'NONE', #62, #259 ) ;
#283 = ORIENTED_EDGE ( 'NONE', *, *, #305, .F. ) ;
#284 = EDGE_CURVE ( 'NONE', #149, #18, #8, .T. ) ;
#285 = DIRECTION ( 'NONE',  ( -1.000000000000000000, 1.224646799147358384E-16, 0.000000000000000000 ) ) ;
#286 = DIRECTION ( 'NONE',  ( 0.000000000000000000, -1.000000000000000000, 0.000000000000000000 ) ) ;
#287 = LINE ( 'NONE', #23, #229 ) ;
#288 = PLANE ( 'NONE',  #214 ) ;
#289 = UNCERTAINTY_MEASURE_WITH_UNIT (LENGTH_MEASURE( 1.000000000000000082E-05 ), #142, 'distance_accuracy_value', 'NONE');
#290 = CIRCLE ( 'NONE', #120, 0.1999999999999996503 ) ;
#291 = DIRECTION ( 'NONE',  ( 0.000000000000000000, 0.000000000000000000, 1.000000000000000000 ) ) ;
#292 = CIRCLE ( 'NONE', #100, 11.00000000000000000 ) ;
#293 = DIRECTION ( 'NONE',  ( 1.000000000000000000, 0.000000000000000000, 0.000000000000000000 ) ) ;
#294 = PERSON_AND_ORGANIZATION ( #89, #250 ) ;
#295 = DATE_AND_TIME ( #198, #262 ) ;
#296 = COORDINATED_UNIVERSAL_TIME_OFFSET ( 1, 0, .AHEAD. ) ;
#297 = APPROVAL_DATE_TIME ( #129, #28 ) ;
#298 = VERTEX_POINT ( 'NONE', #221 ) ;
#299 = DIRECTION ( 'NONE',  ( 0.000000000000000000, 0.000000000000000000, 1.000000000000000000 ) ) ;
#300 = LOCAL_TIME ( 11, 39, 31.00000000000000000, #268 ) ;
#301 = ORIENTED_EDGE ( 'NONE', *, *, #121, .T. ) ;
#302 = EDGE_LOOP ( 'NONE', ( #35, #231, #80, #275 ) ) ;
#303 = CARTESIAN_POINT ( 'NONE',  ( 0.000000000000000000, 0.000000000000000000, 7.000000000000000000 ) ) ;
#304 =( GEOMETRIC_REPRESENTATION_CONTEXT ( 3 ) GLOBAL_UNCERTAINTY_ASSIGNED_CONTEXT ( ( #289 ) ) GLOBAL_UNIT_ASSIGNED_CONTEXT ( ( #142, #9, #101 ) ) REPRESENTATION_CONTEXT ( 'NONE', 'WORKASPACE' ) );
#305 = EDGE_CURVE ( 'NONE', #298, #110, #163, .T. ) ;
#306 = ORIENTED_EDGE ( 'NONE', *, *, #91, .T. ) ;
#307 = DIRECTION ( 'NONE',  ( 0.000000000000000000, 0.000000000000000000, 1.000000000000000000 ) ) ;
ENDSEC;
END-ISO-10303-21;
