ISO-10303-21;
HEADER;
FILE_DESCRIPTION (( 'STEP AP203' ),
    '1' );
FILE_NAME ('7027.STEP',
    '2022-07-07T10:32:01',
    ( '' ),
    ( '' ),
    'SwSTEP 2.0',
    'SolidWorks 2019',
    '' );
FILE_SCHEMA (( 'CONFIG_CONTROL_DESIGN' ));
ENDSEC;

DATA;
#1 = ORIENTED_EDGE ( 'NONE', *, *, #276, .T. ) ;
#2 = VERTEX_POINT ( 'NONE', #77 ) ;
#3 = VERTEX_POINT ( 'NONE', #105 ) ;
#4 = APPROVAL ( #303, 'NEURÈENÝ' ) ;
#5 = CARTESIAN_POINT ( 'NONE',  ( 3.000000000000000444, 3.673940397442060361E-16, 0.000000000000000000 ) ) ;
#6 = ORIENTED_EDGE ( 'NONE', *, *, #51, .T. ) ;
#7 = DIRECTION ( 'NONE',  ( 0.000000000000000000, 0.000000000000000000, 1.000000000000000000 ) ) ;
#8 = EDGE_LOOP ( 'NONE', ( #150, #103 ) ) ;
#9 = DIRECTION ( 'NONE',  ( 1.000000000000000000, 0.000000000000000000, 0.000000000000000000 ) ) ;
#10 = EDGE_LOOP ( 'NONE', ( #281, #211, #125, #149 ) ) ;
#11 = AXIS2_PLACEMENT_3D ( 'NONE', #226, #152, #199 ) ;
#12 = CARTESIAN_POINT ( 'NONE',  ( 0.000000000000000000, 0.000000000000000000, 0.000000000000000000 ) ) ;
#13 = EDGE_CURVE ( 'NONE', #193, #146, #307, .T. ) ;
#14 = EDGE_LOOP ( 'NONE', ( #258, #119 ) ) ;
#15 = DIRECTION ( 'NONE',  ( -1.000000000000000000, 1.224646799147353207E-16, 0.000000000000000000 ) ) ;
#16 = LINE ( 'NONE', #225, #294 ) ;
#17 = DIRECTION ( 'NONE',  ( 0.000000000000000000, 0.000000000000000000, 1.000000000000000000 ) ) ;
#18 = CIRCLE ( 'NONE', #65, 1.700000000000000400 ) ;
#19 = APPROVAL_DATE_TIME ( #304, #4 ) ;
#20 = COORDINATED_UNIVERSAL_TIME_OFFSET ( 1, 0, .AHEAD. ) ;
#21 = ORGANIZATION ( 'NEURÈENÝ', 'NEURÈENÝ', '' ) ;
#22 = ORIENTED_EDGE ( 'NONE', *, *, #208, .T. ) ;
#23 = PERSON_AND_ORGANIZATION ( #115, #21 ) ;
#24 = ORIENTED_EDGE ( 'NONE', *, *, #163, .F. ) ;
#25 = ORIENTED_EDGE ( 'NONE', *, *, #13, .T. ) ;
#26 = CC_DESIGN_PERSON_AND_ORGANIZATION_ASSIGNMENT ( #143, #95, ( #139 ) ) ;
#27 = ORIENTED_EDGE ( 'NONE', *, *, #158, .T. ) ;
#28 = VERTEX_POINT ( 'NONE', #5 ) ;
#29 = AXIS2_PLACEMENT_3D ( 'NONE', #252, #286, #9 ) ;
#30 = CARTESIAN_POINT ( 'NONE',  ( -3.000000000000000444, 0.000000000000000000, 3.000000000000000000 ) ) ;
#31 = AXIS2_PLACEMENT_3D ( 'NONE', #88, #221, #219 ) ;
#32 = DIRECTION ( 'NONE',  ( -0.000000000000000000, -0.000000000000000000, -1.000000000000000000 ) ) ;
#33 = CARTESIAN_POINT ( 'NONE',  ( 0.000000000000000000, 0.000000000000000000, 3.199999999999994404 ) ) ;
#34 = DIRECTION ( 'NONE',  ( 1.000000000000000000, 0.000000000000000000, -0.000000000000000000 ) ) ;
#35 = ORIENTED_EDGE ( 'NONE', *, *, #230, .T. ) ;
#36 = AXIS2_PLACEMENT_3D ( 'NONE', #60, #155, #268 ) ;
#37 = ADVANCED_FACE ( 'NONE', ( #261 ), #293, .T. ) ;
#38 = CYLINDRICAL_SURFACE ( 'NONE', #288, 3.000000000000000444 ) ;
#39 = DIRECTION ( 'NONE',  ( -0.000000000000000000, -0.000000000000000000, -1.000000000000000000 ) ) ;
#40 = CARTESIAN_POINT ( 'NONE',  ( 0.000000000000000000, 0.000000000000000000, 3.000000000000000000 ) ) ;
#41 = CARTESIAN_POINT ( 'NONE',  ( 1.500000000000000222, 1.836970198721030181E-16, 128.0000000000000000 ) ) ;
#42 = DIRECTION ( 'NONE',  ( -0.000000000000000000, -0.000000000000000000, -1.000000000000000000 ) ) ;
#43 = APPROVAL ( #229, 'NEURÈENÝ' ) ;
#44 = CARTESIAN_POINT ( 'NONE',  ( 0.000000000000000000, 0.000000000000000000, 0.000000000000000000 ) ) ;
#45 = AXIS2_PLACEMENT_3D ( 'NONE', #44, #302, #234 ) ;
#46 = CALENDAR_DATE ( 2022, 7, 7 ) ;
#47 = PRODUCT_RELATED_PRODUCT_CATEGORY ( 'detail', '', ( #139 ) ) ;
#48 = AXIS2_PLACEMENT_3D ( 'NONE', #192, #283, #290 ) ;
#49 = DATE_TIME_ROLE ( 'creation_date' ) ;
#50 = VERTEX_POINT ( 'NONE', #173 ) ;
#51 = EDGE_CURVE ( 'NONE', #248, #123, #133, .T. ) ;
#52 = VERTEX_POINT ( 'NONE', #263 ) ;
#53 = ORIENTED_EDGE ( 'NONE', *, *, #13, .F. ) ;
#54 = DIRECTION ( 'NONE',  ( 0.000000000000000000, 0.000000000000000000, 1.000000000000000000 ) ) ;
#55 = DIRECTION ( 'NONE',  ( 1.000000000000000000, 0.000000000000000000, 0.000000000000000000 ) ) ;
#56 = DIRECTION ( 'NONE',  ( 0.000000000000000000, 0.000000000000000000, 1.000000000000000000 ) ) ;
#57 = FACE_OUTER_BOUND ( 'NONE', #10, .T. ) ;
#58 = VERTEX_POINT ( 'NONE', #247 ) ;
#59 = DIRECTION ( 'NONE',  ( 1.000000000000000000, 0.000000000000000000, 0.000000000000000000 ) ) ;
#60 = CARTESIAN_POINT ( 'NONE',  ( 0.000000000000000000, 0.000000000000000000, 3.199999999999994404 ) ) ;
#61 = EDGE_CURVE ( 'NONE', #3, #58, #202, .T. ) ;
#62 = CYLINDRICAL_SURFACE ( 'NONE', #182, 3.000000000000000444 ) ;
#63 = PERSON_AND_ORGANIZATION_ROLE ( 'design_supplier' ) ;
#64 = CALENDAR_DATE ( 2022, 7, 7 ) ;
#65 = AXIS2_PLACEMENT_3D ( 'NONE', #295, #42, #55 ) ;
#66 = DATE_AND_TIME ( #64, #100 ) ;
#67 = ADVANCED_FACE ( 'NONE', ( #172 ), #135, .F. ) ;
#68 = APPROVAL_DATE_TIME ( #141, #200 ) ;
#69 = APPROVAL_ROLE ( '' ) ;
#70 = CIRCLE ( 'NONE', #240, 3.000000000000000444 ) ;
#71 = EDGE_LOOP ( 'NONE', ( #236, #1, #170, #104 ) ) ;
#72 = APPLICATION_CONTEXT ( 'configuration controlled 3d designs of mechanical parts and assemblies' ) ;
#73 = AXIS2_PLACEMENT_3D ( 'NONE', #131, #222, #87 ) ;
#74 = EDGE_LOOP ( 'NONE', ( #238, #84, #22, #82 ) ) ;
#75 = AXIS2_PLACEMENT_3D ( 'NONE', #33, #83, #179 ) ;
#76 = CC_DESIGN_APPROVAL ( #200, ( #117 ) ) ;
#77 = CARTESIAN_POINT ( 'NONE',  ( 1.700000000000000400, 0.000000000000000000, 2.999999999999997335 ) ) ;
#78 = AXIS2_PLACEMENT_3D ( 'NONE', #195, #39, #108 ) ;
#79 = FACE_OUTER_BOUND ( 'NONE', #8, .T. ) ;
#80 = DIRECTION ( 'NONE',  ( -0.000000000000000000, -0.000000000000000000, -1.000000000000000000 ) ) ;
#81 = ADVANCED_FACE ( 'NONE', ( #180 ), #144, .F. ) ;
#82 = ORIENTED_EDGE ( 'NONE', *, *, #305, .F. ) ;
#83 = DIRECTION ( 'NONE',  ( 0.000000000000000000, 0.000000000000000000, 1.000000000000000000 ) ) ;
#84 = ORIENTED_EDGE ( 'NONE', *, *, #188, .F. ) ;
#85 = DIRECTION ( 'NONE',  ( -1.000000000000000000, 0.000000000000000000, 0.000000000000000000 ) ) ;
#86 = VECTOR ( 'NONE', #32, 1000.000000000000000 ) ;
#87 = DIRECTION ( 'NONE',  ( 1.000000000000000000, 0.000000000000000000, -0.000000000000000000 ) ) ;
#88 = CARTESIAN_POINT ( 'NONE',  ( 0.000000000000000000, 0.000000000000000000, 3.199999999999994404 ) ) ;
#89 = CIRCLE ( 'NONE', #116, 0.2000000000000000944 ) ;
#90 = DIRECTION ( 'NONE',  ( 0.000000000000000000, -1.000000000000000000, 0.000000000000000000 ) ) ;
#91 = PERSON_AND_ORGANIZATION ( #115, #21 ) ;
#92 = PRODUCT_DEFINITION_SHAPE ( 'NONE', 'NONE',  #102 ) ;
#93 = DATE_AND_TIME ( #227, #210 ) ;
#94 = CC_DESIGN_DATE_AND_TIME_ASSIGNMENT ( #66, #203, ( #117 ) ) ;
#95 = PERSON_AND_ORGANIZATION_ROLE ( 'design_owner' ) ;
#96 = PERSON_AND_ORGANIZATION_ROLE ( 'creator' ) ;
#97 = EDGE_CURVE ( 'NONE', #58, #52, #270, .T. ) ;
#98 = CALENDAR_DATE ( 2022, 7, 7 ) ;
#99 = AXIS2_PLACEMENT_3D ( 'NONE', #198, #56, #196 ) ;
#100 = LOCAL_TIME ( 12, 32, 1.000000000000000000, #277 ) ;
#101 = ADVANCED_BREP_SHAPE_REPRESENTATION ( '7027', ( #142, #45 ), #153 ) ;
#102 = PRODUCT_DEFINITION ( 'NEZNÁMÝ', '', #190, #184 ) ;
#103 = ORIENTED_EDGE ( 'NONE', *, *, #61, .T. ) ;
#104 = ORIENTED_EDGE ( 'NONE', *, *, #208, .F. ) ;
#105 = CARTESIAN_POINT ( 'NONE',  ( 3.000000000000000444, 3.673940397442060361E-16, 3.000000000000000000 ) ) ;
#106 = EDGE_CURVE ( 'NONE', #193, #248, #242, .T. ) ;
#107 = DIRECTION ( 'NONE',  ( 0.000000000000000000, 0.000000000000000000, 1.000000000000000000 ) ) ;
#108 = DIRECTION ( 'NONE',  ( -1.000000000000000000, 0.000000000000000000, 0.000000000000000000 ) ) ;
#109 = PLANE ( 'NONE',  #127 ) ;
#110 = EDGE_LOOP ( 'NONE', ( #178, #266 ) ) ;
#111 = LINE ( 'NONE', #113, #296 ) ;
#112 = ORIENTED_EDGE ( 'NONE', *, *, #97, .F. ) ;
#113 = CARTESIAN_POINT ( 'NONE',  ( 1.500000000000000222, 1.836970198721030181E-16, 128.0000000000000000 ) ) ;
#114 = DIRECTION ( 'NONE',  ( 1.224646799147353207E-16, 1.000000000000000000, -0.000000000000000000 ) ) ;
#115 = PERSON ( 'NEURÈENÝ', 'NEURÈENÝ', 'NEURÈENÝ', ('NEURÈENÝ'), ('NEURÈENÝ'), ('NEURÈENÝ') ) ;
#116 = AXIS2_PLACEMENT_3D ( 'NONE', #132, #90, #267 ) ;
#117 = SECURITY_CLASSIFICATION ( '', '', #275 ) ;
#118 = DATE_AND_TIME ( #231, #187 ) ;
#119 = ORIENTED_EDGE ( 'NONE', *, *, #305, .T. ) ;
#120 = PERSON_AND_ORGANIZATION_ROLE ( 'classification_officer' ) ;
#121 = EDGE_LOOP ( 'NONE', ( #147, #53, #212, #6 ) ) ;
#122 = ADVANCED_FACE ( 'NONE', ( #287, #79 ), #285, .T. ) ;
#123 = VERTEX_POINT ( 'NONE', #137 ) ;
#124 = AXIS2_PLACEMENT_3D ( 'NONE', #154, #245, #34 ) ;
#125 = ORIENTED_EDGE ( 'NONE', *, *, #188, .T. ) ;
#126 = AXIS2_PLACEMENT_3D ( 'NONE', #194, #274, #289 ) ;
#127 = AXIS2_PLACEMENT_3D ( 'NONE', #183, #107, #272 ) ;
#128 = AXIS2_PLACEMENT_3D ( 'NONE', #250, #114, #15 ) ;
#129 = CARTESIAN_POINT ( 'NONE',  ( -1.500000000000000222, 0.000000000000000000, 128.0000000000000000 ) ) ;
#130 = DIRECTION ( 'NONE',  ( -1.000000000000000000, 0.000000000000000000, 0.000000000000000000 ) ) ;
#131 = CARTESIAN_POINT ( 'NONE',  ( 0.000000000000000000, 0.000000000000000000, 0.000000000000000000 ) ) ;
#132 = CARTESIAN_POINT ( 'NONE',  ( 1.700000000000000400, 0.000000000000000000, 3.199999999999994404 ) ) ;
#133 = CIRCLE ( 'NONE', #36, 1.500000000000000222 ) ;
#134 = ORIENTED_EDGE ( 'NONE', *, *, #177, .T. ) ;
#135 = PLANE ( 'NONE',  #73 ) ;
#136 = CARTESIAN_POINT ( 'NONE',  ( -1.500000000000000222, 0.000000000000000000, 3.199999999999994404 ) ) ;
#137 = CARTESIAN_POINT ( 'NONE',  ( 1.500000000000000222, 1.836970198721030181E-16, 3.199999999999994404 ) ) ;
#138 = PERSON_AND_ORGANIZATION ( #115, #21 ) ;
#139 = PRODUCT ( '7027', '7027', '', ( #301 ) ) ;
#140 = CC_DESIGN_SECURITY_CLASSIFICATION ( #117, ( #190 ) ) ;
#141 = DATE_AND_TIME ( #46, #264 ) ;
#142 = MANIFOLD_SOLID_BREP ( 'Zaoblit1', #282 ) ;
#143 = PERSON_AND_ORGANIZATION ( #115, #21 ) ;
#144 = TOROIDAL_SURFACE ( 'NONE', #213, 1.700000000000000400, 0.2000000000000000111 ) ;
#145 = PERSON_AND_ORGANIZATION_ROLE ( 'creator' ) ;
#146 = VERTEX_POINT ( 'NONE', #41 ) ;
#147 = ORIENTED_EDGE ( 'NONE', *, *, #214, .F. ) ;
#148 = APPLICATION_CONTEXT ( 'configuration controlled 3d designs of mechanical parts and assemblies' ) ;
#149 = ORIENTED_EDGE ( 'NONE', *, *, #106, .F. ) ;
#150 = ORIENTED_EDGE ( 'NONE', *, *, #163, .T. ) ;
#151 = DIRECTION ( 'NONE',  ( 1.000000000000000000, 0.000000000000000000, 0.000000000000000000 ) ) ;
#152 = DIRECTION ( 'NONE',  ( -0.000000000000000000, -0.000000000000000000, -1.000000000000000000 ) ) ;
#153 =( GEOMETRIC_REPRESENTATION_CONTEXT ( 3 ) GLOBAL_UNCERTAINTY_ASSIGNED_CONTEXT ( ( #273 ) ) GLOBAL_UNIT_ASSIGNED_CONTEXT ( ( #265, #246, #254 ) ) REPRESENTATION_CONTEXT ( 'NONE', 'WORKASPACE' ) );
#154 = CARTESIAN_POINT ( 'NONE',  ( 0.000000000000000000, 0.000000000000000000, 3.000000000000000000 ) ) ;
#155 = DIRECTION ( 'NONE',  ( 0.000000000000000000, 0.000000000000000000, 1.000000000000000000 ) ) ;
#156 = CYLINDRICAL_SURFACE ( 'NONE', #278, 1.500000000000000222 ) ;
#157 = EDGE_LOOP ( 'NONE', ( #25, #237 ) ) ;
#158 = EDGE_CURVE ( 'NONE', #3, #28, #16, .T. ) ;
#159 = DIRECTION ( 'NONE',  ( -0.000000000000000000, -0.000000000000000000, -1.000000000000000000 ) ) ;
#160 = DIRECTION ( 'NONE',  ( -0.000000000000000000, -0.000000000000000000, -1.000000000000000000 ) ) ;
#161 = CARTESIAN_POINT ( 'NONE',  ( 0.000000000000000000, 0.000000000000000000, 128.0000000000000000 ) ) ;
#162 = APPLICATION_PROTOCOL_DEFINITION ( 'international standard', 'config_control_design', 1994, #148 ) ;
#163 = EDGE_CURVE ( 'NONE', #58, #3, #167, .T. ) ;
#164 = APPROVAL_STATUS ( 'not_yet_approved' ) ;
#165 = CC_DESIGN_APPROVAL ( #43, ( #102 ) ) ;
#166 = SHAPE_DEFINITION_REPRESENTATION ( #92, #101 ) ;
#167 = CIRCLE ( 'NONE', #29, 3.000000000000000444 ) ;
#168 = APPROVAL_ROLE ( '' ) ;
#169 = CC_DESIGN_APPROVAL ( #4, ( #190 ) ) ;
#170 = ORIENTED_EDGE ( 'NONE', *, *, #235, .F. ) ;
#171 = AXIS2_PLACEMENT_3D ( 'NONE', #161, #17, #243 ) ;
#172 = FACE_OUTER_BOUND ( 'NONE', #110, .T. ) ;
#173 = CARTESIAN_POINT ( 'NONE',  ( -1.700000000000000400, 2.081899558550500773E-16, 2.999999999999997335 ) ) ;
#174 = CARTESIAN_POINT ( 'NONE',  ( 0.000000000000000000, 0.000000000000000000, 3.000000000000000000 ) ) ;
#175 = EDGE_LOOP ( 'NONE', ( #209, #24, #217, #134 ) ) ;
#176 = CARTESIAN_POINT ( 'NONE',  ( -1.500000000000000222, 0.000000000000000000, 128.0000000000000000 ) ) ;
#177 = EDGE_CURVE ( 'NONE', #52, #28, #70, .T. ) ;
#178 = ORIENTED_EDGE ( 'NONE', *, *, #177, .F. ) ;
#179 = DIRECTION ( 'NONE',  ( 1.000000000000000000, 0.000000000000000000, 0.000000000000000000 ) ) ;
#180 = FACE_OUTER_BOUND ( 'NONE', #74, .T. ) ;
#181 = FACE_OUTER_BOUND ( 'NONE', #71, .T. ) ;
#182 = AXIS2_PLACEMENT_3D ( 'NONE', #174, #223, #291 ) ;
#183 = CARTESIAN_POINT ( 'NONE',  ( 0.000000000000000000, 0.000000000000000000, 128.0000000000000000 ) ) ;
#184 = DESIGN_CONTEXT ( 'detailed design', #72, 'design' ) ;
#185 = COORDINATED_UNIVERSAL_TIME_OFFSET ( 1, 0, .AHEAD. ) ;
#186 = APPROVAL_DATE_TIME ( #93, #43 ) ;
#187 = LOCAL_TIME ( 12, 32, 1.000000000000000000, #185 ) ;
#188 = EDGE_CURVE ( 'NONE', #123, #248, #204, .T. ) ;
#189 = PERSON_AND_ORGANIZATION ( #115, #21 ) ;
#190 = PRODUCT_DEFINITION_FORMATION_WITH_SPECIFIED_SOURCE ( 'LIBOVOLNÝ', '', #139, .NOT_KNOWN. ) ;
#191 = APPROVAL_PERSON_ORGANIZATION ( #206, #4, #168 ) ;
#192 = CARTESIAN_POINT ( 'NONE',  ( 0.000000000000000000, 0.000000000000000000, 3.000000000000000000 ) ) ;
#193 = VERTEX_POINT ( 'NONE', #176 ) ;
#194 = CARTESIAN_POINT ( 'NONE',  ( 0.000000000000000000, 0.000000000000000000, 0.000000000000000000 ) ) ;
#195 = CARTESIAN_POINT ( 'NONE',  ( 0.000000000000000000, 0.000000000000000000, 128.0000000000000000 ) ) ;
#196 = DIRECTION ( 'NONE',  ( 1.000000000000000000, 0.000000000000000000, 0.000000000000000000 ) ) ;
#197 = DIRECTION ( 'NONE',  ( -0.000000000000000000, -0.000000000000000000, -1.000000000000000000 ) ) ;
#198 = CARTESIAN_POINT ( 'NONE',  ( 0.000000000000000000, 0.000000000000000000, 128.0000000000000000 ) ) ;
#199 = DIRECTION ( 'NONE',  ( 1.000000000000000000, 0.000000000000000000, 0.000000000000000000 ) ) ;
#200 = APPROVAL ( #164, 'NEURÈENÝ' ) ;
#201 = FACE_OUTER_BOUND ( 'NONE', #175, .T. ) ;
#202 = CIRCLE ( 'NONE', #48, 3.000000000000000444 ) ;
#203 = DATE_TIME_ROLE ( 'classification_date' ) ;
#204 = CIRCLE ( 'NONE', #75, 1.500000000000000222 ) ;
#205 = ADVANCED_FACE ( 'NONE', ( #181 ), #249, .F. ) ;
#206 = PERSON_AND_ORGANIZATION ( #115, #21 ) ;
#207 = PERSON_AND_ORGANIZATION ( #115, #21 ) ;
#208 = EDGE_CURVE ( 'NONE', #123, #2, #89, .T. ) ;
#209 = ORIENTED_EDGE ( 'NONE', *, *, #158, .F. ) ;
#210 = LOCAL_TIME ( 12, 32, 1.000000000000000000, #232 ) ;
#211 = ORIENTED_EDGE ( 'NONE', *, *, #214, .T. ) ;
#212 = ORIENTED_EDGE ( 'NONE', *, *, #106, .T. ) ;
#213 = AXIS2_PLACEMENT_3D ( 'NONE', #239, #54, #151 ) ;
#214 = EDGE_CURVE ( 'NONE', #146, #123, #111, .T. ) ;
#215 = EDGE_LOOP ( 'NONE', ( #220, #27, #35, #112 ) ) ;
#216 = DIRECTION ( 'NONE',  ( -0.000000000000000000, -0.000000000000000000, -1.000000000000000000 ) ) ;
#217 = ORIENTED_EDGE ( 'NONE', *, *, #97, .T. ) ;
#218 = CC_DESIGN_DATE_AND_TIME_ASSIGNMENT ( #118, #49, ( #102 ) ) ;
#219 = DIRECTION ( 'NONE',  ( 1.000000000000000000, 0.000000000000000000, 0.000000000000000000 ) ) ;
#220 = ORIENTED_EDGE ( 'NONE', *, *, #61, .F. ) ;
#221 = DIRECTION ( 'NONE',  ( 0.000000000000000000, 0.000000000000000000, 1.000000000000000000 ) ) ;
#222 = DIRECTION ( 'NONE',  ( 0.000000000000000000, 0.000000000000000000, 1.000000000000000000 ) ) ;
#223 = DIRECTION ( 'NONE',  ( -0.000000000000000000, -0.000000000000000000, -1.000000000000000000 ) ) ;
#224 = ADVANCED_FACE ( 'NONE', ( #269 ), #109, .T. ) ;
#225 = CARTESIAN_POINT ( 'NONE',  ( 3.000000000000000444, 3.673940397442060361E-16, 3.000000000000000000 ) ) ;
#226 = CARTESIAN_POINT ( 'NONE',  ( 0.000000000000000000, 0.000000000000000000, 3.000000000000000000 ) ) ;
#227 = CALENDAR_DATE ( 2022, 7, 7 ) ;
#228 = LOCAL_TIME ( 12, 32, 1.000000000000000000, #279 ) ;
#229 = APPROVAL_STATUS ( 'not_yet_approved' ) ;
#230 = EDGE_CURVE ( 'NONE', #28, #52, #297, .T. ) ;
#231 = CALENDAR_DATE ( 2022, 7, 7 ) ;
#232 = COORDINATED_UNIVERSAL_TIME_OFFSET ( 1, 0, .AHEAD. ) ;
#233 = CIRCLE ( 'NONE', #128, 0.2000000000000000944 ) ;
#234 = DIRECTION ( 'NONE',  ( 1.000000000000000000, 0.000000000000000000, 0.000000000000000000 ) ) ;
#235 = EDGE_CURVE ( 'NONE', #2, #50, #241, .T. ) ;
#236 = ORIENTED_EDGE ( 'NONE', *, *, #51, .F. ) ;
#237 = ORIENTED_EDGE ( 'NONE', *, *, #257, .T. ) ;
#238 = ORIENTED_EDGE ( 'NONE', *, *, #276, .F. ) ;
#239 = CARTESIAN_POINT ( 'NONE',  ( 0.000000000000000000, 0.000000000000000000, 3.199999999999994404 ) ) ;
#240 = AXIS2_PLACEMENT_3D ( 'NONE', #12, #7, #59 ) ;
#241 = CIRCLE ( 'NONE', #11, 1.700000000000000400 ) ;
#242 = LINE ( 'NONE', #129, #255 ) ;
#243 = DIRECTION ( 'NONE',  ( 1.000000000000000000, 0.000000000000000000, 0.000000000000000000 ) ) ;
#244 = ADVANCED_FACE ( 'NONE', ( #201 ), #62, .T. ) ;
#245 = DIRECTION ( 'NONE',  ( 0.000000000000000000, 0.000000000000000000, 1.000000000000000000 ) ) ;
#246 =( NAMED_UNIT ( * ) PLANE_ANGLE_UNIT ( ) SI_UNIT ( $, .RADIAN. ) );
#247 = CARTESIAN_POINT ( 'NONE',  ( -3.000000000000000444, 0.000000000000000000, 3.000000000000000000 ) ) ;
#248 = VERTEX_POINT ( 'NONE', #136 ) ;
#249 = TOROIDAL_SURFACE ( 'NONE', #31, 1.700000000000000400, 0.2000000000000000111 ) ;
#250 = CARTESIAN_POINT ( 'NONE',  ( -1.700000000000000400, 2.081899558550500773E-16, 3.199999999999994404 ) ) ;
#251 = CIRCLE ( 'NONE', #171, 1.500000000000000222 ) ;
#252 = CARTESIAN_POINT ( 'NONE',  ( 0.000000000000000000, 0.000000000000000000, 3.000000000000000000 ) ) ;
#253 = CARTESIAN_POINT ( 'NONE',  ( 0.000000000000000000, 0.000000000000000000, 128.0000000000000000 ) ) ;
#254 =( NAMED_UNIT ( * ) SI_UNIT ( $, .STERADIAN. ) SOLID_ANGLE_UNIT ( ) );
#255 = VECTOR ( 'NONE', #216, 1000.000000000000000 ) ;
#256 = PERSON_AND_ORGANIZATION ( #115, #21 ) ;
#257 = EDGE_CURVE ( 'NONE', #146, #193, #251, .T. ) ;
#258 = ORIENTED_EDGE ( 'NONE', *, *, #235, .T. ) ;
#259 = APPROVAL_PERSON_ORGANIZATION ( #207, #200, #306 ) ;
#260 = ADVANCED_FACE ( 'NONE', ( #57 ), #156, .T. ) ;
#261 = FACE_OUTER_BOUND ( 'NONE', #121, .T. ) ;
#262 = ADVANCED_FACE ( 'NONE', ( #298 ), #38, .T. ) ;
#263 = CARTESIAN_POINT ( 'NONE',  ( -3.000000000000000444, 0.000000000000000000, 0.000000000000000000 ) ) ;
#264 = LOCAL_TIME ( 12, 32, 1.000000000000000000, #20 ) ;
#265 =( LENGTH_UNIT ( ) NAMED_UNIT ( * ) SI_UNIT ( .MILLI., .METRE. ) );
#266 = ORIENTED_EDGE ( 'NONE', *, *, #230, .F. ) ;
#267 = DIRECTION ( 'NONE',  ( 0.000000000000000000, 0.000000000000000000, -1.000000000000000000 ) ) ;
#268 = DIRECTION ( 'NONE',  ( 1.000000000000000000, 0.000000000000000000, 0.000000000000000000 ) ) ;
#269 = FACE_OUTER_BOUND ( 'NONE', #157, .T. ) ;
#270 = LINE ( 'NONE', #30, #86 ) ;
#271 = CC_DESIGN_PERSON_AND_ORGANIZATION_ASSIGNMENT ( #23, #120, ( #117 ) ) ;
#272 = DIRECTION ( 'NONE',  ( 1.000000000000000000, 0.000000000000000000, -0.000000000000000000 ) ) ;
#273 = UNCERTAINTY_MEASURE_WITH_UNIT (LENGTH_MEASURE( 1.000000000000000082E-05 ), #265, 'distance_accuracy_value', 'NONE');
#274 = DIRECTION ( 'NONE',  ( 0.000000000000000000, 0.000000000000000000, 1.000000000000000000 ) ) ;
#275 = SECURITY_CLASSIFICATION_LEVEL ( 'unclassified' ) ;
#276 = EDGE_CURVE ( 'NONE', #248, #50, #233, .T. ) ;
#277 = COORDINATED_UNIVERSAL_TIME_OFFSET ( 1, 0, .AHEAD. ) ;
#278 = AXIS2_PLACEMENT_3D ( 'NONE', #253, #197, #85 ) ;
#279 = COORDINATED_UNIVERSAL_TIME_OFFSET ( 1, 0, .AHEAD. ) ;
#280 = APPLICATION_PROTOCOL_DEFINITION ( 'international standard', 'config_control_design', 1994, #72 ) ;
#281 = ORIENTED_EDGE ( 'NONE', *, *, #257, .F. ) ;
#282 = CLOSED_SHELL ( 'NONE', ( #205, #260, #262, #244, #122, #67, #37, #224, #81 ) ) ;
#283 = DIRECTION ( 'NONE',  ( 0.000000000000000000, 0.000000000000000000, 1.000000000000000000 ) ) ;
#284 = CC_DESIGN_PERSON_AND_ORGANIZATION_ASSIGNMENT ( #256, #63, ( #190 ) ) ;
#285 = PLANE ( 'NONE',  #124 ) ;
#286 = DIRECTION ( 'NONE',  ( 0.000000000000000000, 0.000000000000000000, 1.000000000000000000 ) ) ;
#287 = FACE_BOUND ( 'NONE', #14, .T. ) ;
#288 = AXIS2_PLACEMENT_3D ( 'NONE', #40, #159, #130 ) ;
#289 = DIRECTION ( 'NONE',  ( 1.000000000000000000, 0.000000000000000000, 0.000000000000000000 ) ) ;
#290 = DIRECTION ( 'NONE',  ( 1.000000000000000000, 0.000000000000000000, 0.000000000000000000 ) ) ;
#291 = DIRECTION ( 'NONE',  ( -1.000000000000000000, 0.000000000000000000, 0.000000000000000000 ) ) ;
#292 = CC_DESIGN_PERSON_AND_ORGANIZATION_ASSIGNMENT ( #91, #145, ( #102 ) ) ;
#293 = CYLINDRICAL_SURFACE ( 'NONE', #78, 1.500000000000000222 ) ;
#294 = VECTOR ( 'NONE', #160, 1000.000000000000000 ) ;
#295 = CARTESIAN_POINT ( 'NONE',  ( 0.000000000000000000, 0.000000000000000000, 3.000000000000000000 ) ) ;
#296 = VECTOR ( 'NONE', #80, 1000.000000000000000 ) ;
#297 = CIRCLE ( 'NONE', #126, 3.000000000000000444 ) ;
#298 = FACE_OUTER_BOUND ( 'NONE', #215, .T. ) ;
#299 = APPROVAL_PERSON_ORGANIZATION ( #138, #43, #69 ) ;
#300 = CC_DESIGN_PERSON_AND_ORGANIZATION_ASSIGNMENT ( #189, #96, ( #190 ) ) ;
#301 = MECHANICAL_CONTEXT ( 'NONE', #148, 'mechanical' ) ;
#302 = DIRECTION ( 'NONE',  ( 0.000000000000000000, 0.000000000000000000, 1.000000000000000000 ) ) ;
#303 = APPROVAL_STATUS ( 'not_yet_approved' ) ;
#304 = DATE_AND_TIME ( #98, #228 ) ;
#305 = EDGE_CURVE ( 'NONE', #50, #2, #18, .T. ) ;
#306 = APPROVAL_ROLE ( '' ) ;
#307 = CIRCLE ( 'NONE', #99, 1.500000000000000222 ) ;
ENDSEC;
END-ISO-10303-21;
