ISO-10303-21;
HEADER;
FILE_DESCRIPTION (( 'STEP AP203' ),
    '1' );
FILE_NAME ('cc67.STEP',
    '2023-02-12T12:59:04',
    ( '' ),
    ( '' ),
    'SwSTEP 2.0',
    'SolidWorks 2019',
    '' );
FILE_SCHEMA (( 'CONFIG_CONTROL_DESIGN' ));
ENDSEC;

DATA;
#1 = ADVANCED_FACE ( 'NONE', ( #182 ), #47, .F. ) ;
#2 = ORIENTED_EDGE ( 'NONE', *, *, #179, .T. ) ;
#3 = CALENDAR_DATE ( 2023, 12, 2 ) ;
#4 = CARTESIAN_POINT ( 'NONE',  ( -0.5999999999999999778, 0.000000000000000000, 200.0000000000000000 ) ) ;
#5 = LINE ( 'NONE', #82, #234 ) ;
#6 = CARTESIAN_POINT ( 'NONE',  ( 0.000000000000000000, 0.000000000000000000, 0.000000000000000000 ) ) ;
#7 = CARTESIAN_POINT ( 'NONE',  ( 0.5999999999999999778, 7.347880794884117764E-17, 200.0000000000000000 ) ) ;
#8 = PRODUCT ( 'cc67', 'cc67', '', ( #178 ) ) ;
#9 = PERSON_AND_ORGANIZATION_ROLE ( 'classification_officer' ) ;
#10 = CARTESIAN_POINT ( 'NONE',  ( -1.250000000000000000, 0.000000000000000000, 0.000000000000000000 ) ) ;
#11 = EDGE_CURVE ( 'NONE', #215, #217, #111, .T. ) ;
#12 = EDGE_CURVE ( 'NONE', #58, #114, #211, .T. ) ;
#13 = AXIS2_PLACEMENT_3D ( 'NONE', #86, #242, #42 ) ;
#14 = CARTESIAN_POINT ( 'NONE',  ( 0.000000000000000000, 0.000000000000000000, 1.199999999999999956 ) ) ;
#15 = DIRECTION ( 'NONE',  ( 1.000000000000000000, 0.000000000000000000, 0.000000000000000000 ) ) ;
#16 = PRODUCT_DEFINITION_FORMATION_WITH_SPECIFIED_SOURCE ( 'LIBOVOLNÝ', '', #8, .NOT_KNOWN. ) ;
#17 = PERSON_AND_ORGANIZATION ( #121, #101 ) ;
#18 = AXIS2_PLACEMENT_3D ( 'NONE', #14, #231, #135 ) ;
#19 = EDGE_LOOP ( 'NONE', ( #75, #158 ) ) ;
#20 = ORIENTED_EDGE ( 'NONE', *, *, #12, .F. ) ;
#21 = PERSON_AND_ORGANIZATION ( #121, #101 ) ;
#22 = ORIENTED_EDGE ( 'NONE', *, *, #77, .F. ) ;
#23 = APPROVAL_STATUS ( 'not_yet_approved' ) ;
#24 = LINE ( 'NONE', #7, #96 ) ;
#25 = DIRECTION ( 'NONE',  ( -1.000000000000000000, 0.000000000000000000, 0.000000000000000000 ) ) ;
#26 = CC_DESIGN_PERSON_AND_ORGANIZATION_ASSIGNMENT ( #127, #9, ( #169 ) ) ;
#27 = CALENDAR_DATE ( 2023, 12, 2 ) ;
#28 = DIRECTION ( 'NONE',  ( -0.000000000000000000, -0.000000000000000000, -1.000000000000000000 ) ) ;
#29 = AXIS2_PLACEMENT_3D ( 'NONE', #248, #226, #122 ) ;
#30 = APPROVAL_DATE_TIME ( #224, #247 ) ;
#31 = CYLINDRICAL_SURFACE ( 'NONE', #13, 1.250000000000000000 ) ;
#32 = DIRECTION ( 'NONE',  ( 0.000000000000000000, 0.000000000000000000, 1.000000000000000000 ) ) ;
#33 = APPLICATION_PROTOCOL_DEFINITION ( 'international standard', 'config_control_design', 1994, #200 ) ;
#34 = AXIS2_PLACEMENT_3D ( 'NONE', #80, #124, #68 ) ;
#35 = ADVANCED_FACE ( 'NONE', ( #44 ), #152, .T. ) ;
#36 = EDGE_LOOP ( 'NONE', ( #2, #236 ) ) ;
#37 = ORIENTED_EDGE ( 'NONE', *, *, #12, .T. ) ;
#38 = VERTEX_POINT ( 'NONE', #190 ) ;
#39 = CC_DESIGN_PERSON_AND_ORGANIZATION_ASSIGNMENT ( #165, #108, ( #16 ) ) ;
#40 = COORDINATED_UNIVERSAL_TIME_OFFSET ( 1, 0, .AHEAD. ) ;
#41 = SHAPE_DEFINITION_REPRESENTATION ( #154, #137 ) ;
#42 = DIRECTION ( 'NONE',  ( -1.000000000000000000, 0.000000000000000000, 0.000000000000000000 ) ) ;
#43 = DATE_AND_TIME ( #27, #144 ) ;
#44 = FACE_OUTER_BOUND ( 'NONE', #197, .T. ) ;
#45 = CARTESIAN_POINT ( 'NONE',  ( 0.000000000000000000, 0.000000000000000000, 1.199999999999999956 ) ) ;
#46 = DIRECTION ( 'NONE',  ( -0.000000000000000000, -0.000000000000000000, -1.000000000000000000 ) ) ;
#47 = PLANE ( 'NONE',  #29 ) ;
#48 = APPROVAL_PERSON_ORGANIZATION ( #17, #247, #181 ) ;
#49 = EDGE_CURVE ( 'NONE', #217, #215, #252, .T. ) ;
#50 = APPROVAL_PERSON_ORGANIZATION ( #146, #92, #171 ) ;
#51 = ADVANCED_FACE ( 'NONE', ( #83 ), #172, .T. ) ;
#52 = CARTESIAN_POINT ( 'NONE',  ( 0.000000000000000000, 0.000000000000000000, 200.0000000000000000 ) ) ;
#53 = DIRECTION ( 'NONE',  ( 0.000000000000000000, 0.000000000000000000, 1.000000000000000000 ) ) ;
#54 = CIRCLE ( 'NONE', #166, 0.5999999999999999778 ) ;
#55 = ORIENTED_EDGE ( 'NONE', *, *, #49, .T. ) ;
#56 = ORIENTED_EDGE ( 'NONE', *, *, #89, .F. ) ;
#57 = VERTEX_POINT ( 'NONE', #251 ) ;
#58 = VERTEX_POINT ( 'NONE', #147 ) ;
#59 = CC_DESIGN_DATE_AND_TIME_ASSIGNMENT ( #43, #123, ( #71 ) ) ;
#60 = LOCAL_TIME ( 13, 59, 4.000000000000000000, #204 ) ;
#61 = APPROVAL_DATE_TIME ( #246, #126 ) ;
#62 = DIRECTION ( 'NONE',  ( 1.000000000000000000, 0.000000000000000000, 0.000000000000000000 ) ) ;
#63 = EDGE_CURVE ( 'NONE', #100, #217, #203, .T. ) ;
#64 = DIRECTION ( 'NONE',  ( 1.000000000000000000, 0.000000000000000000, 0.000000000000000000 ) ) ;
#65 = AXIS2_PLACEMENT_3D ( 'NONE', #88, #70, #25 ) ;
#66 = DATE_TIME_ROLE ( 'classification_date' ) ;
#67 = DIRECTION ( 'NONE',  ( -0.000000000000000000, -0.000000000000000000, -1.000000000000000000 ) ) ;
#68 = DIRECTION ( 'NONE',  ( -1.000000000000000000, 0.000000000000000000, 0.000000000000000000 ) ) ;
#69 = COORDINATED_UNIVERSAL_TIME_OFFSET ( 1, 0, .AHEAD. ) ;
#70 = DIRECTION ( 'NONE',  ( -0.000000000000000000, -0.000000000000000000, -1.000000000000000000 ) ) ;
#71 = PRODUCT_DEFINITION ( 'NEZNÁMÝ', '', #16, #227 ) ;
#72 = PLANE ( 'NONE',  #210 ) ;
#73 = ADVANCED_FACE ( 'NONE', ( #107 ), #31, .T. ) ;
#74 = ORIENTED_EDGE ( 'NONE', *, *, #173, .T. ) ;
#75 = ORIENTED_EDGE ( 'NONE', *, *, #49, .F. ) ;
#76 = EDGE_LOOP ( 'NONE', ( #143, #119, #160, #55 ) ) ;
#77 = EDGE_CURVE ( 'NONE', #232, #38, #54, .T. ) ;
#78 = ORIENTED_EDGE ( 'NONE', *, *, #173, .F. ) ;
#79 = APPROVAL_ROLE ( '' ) ;
#80 = CARTESIAN_POINT ( 'NONE',  ( 0.000000000000000000, 0.000000000000000000, 200.0000000000000000 ) ) ;
#81 = PERSON_AND_ORGANIZATION_ROLE ( 'creator' ) ;
#82 = CARTESIAN_POINT ( 'NONE',  ( 1.250000000000000000, 1.530808498934191571E-16, 1.199999999999999956 ) ) ;
#83 = FACE_OUTER_BOUND ( 'NONE', #238, .T. ) ;
#84 = CIRCLE ( 'NONE', #138, 1.250000000000000000 ) ;
#85 = LOCAL_TIME ( 13, 59, 4.000000000000000000, #40 ) ;
#86 = CARTESIAN_POINT ( 'NONE',  ( 0.000000000000000000, 0.000000000000000000, 1.199999999999999956 ) ) ;
#87 = DATE_AND_TIME ( #162, #85 ) ;
#88 = CARTESIAN_POINT ( 'NONE',  ( 0.000000000000000000, 0.000000000000000000, 200.0000000000000000 ) ) ;
#89 = EDGE_CURVE ( 'NONE', #114, #38, #24, .T. ) ;
#90 = DIRECTION ( 'NONE',  ( 0.000000000000000000, 0.000000000000000000, 1.000000000000000000 ) ) ;
#91 = AXIS2_PLACEMENT_3D ( 'NONE', #206, #28, #109 ) ;
#92 = APPROVAL ( #23, 'NEURÈENÝ' ) ;
#93 = PLANE ( 'NONE',  #94 ) ;
#94 = AXIS2_PLACEMENT_3D ( 'NONE', #209, #53, #192 ) ;
#95 = ORIENTED_EDGE ( 'NONE', *, *, #254, .T. ) ;
#96 = VECTOR ( 'NONE', #188, 1000.000000000000000 ) ;
#97 = APPROVAL_STATUS ( 'not_yet_approved' ) ;
#98 = AXIS2_PLACEMENT_3D ( 'NONE', #112, #195, #15 ) ;
#99 = EDGE_LOOP ( 'NONE', ( #201, #145, #180, #213 ) ) ;
#100 = VERTEX_POINT ( 'NONE', #167 ) ;
#101 = ORGANIZATION ( 'NEURÈENÝ', 'NEURÈENÝ', '' ) ;
#102 = SECURITY_CLASSIFICATION_LEVEL ( 'unclassified' ) ;
#103 = LINE ( 'NONE', #4, #159 ) ;
#104 = COORDINATED_UNIVERSAL_TIME_OFFSET ( 1, 0, .AHEAD. ) ;
#105 = DIRECTION ( 'NONE',  ( -0.000000000000000000, -0.000000000000000000, -1.000000000000000000 ) ) ;
#106 = PERSON_AND_ORGANIZATION_ROLE ( 'design_supplier' ) ;
#107 = FACE_OUTER_BOUND ( 'NONE', #76, .T. ) ;
#108 = PERSON_AND_ORGANIZATION_ROLE ( 'creator' ) ;
#109 = DIRECTION ( 'NONE',  ( -1.000000000000000000, 0.000000000000000000, 0.000000000000000000 ) ) ;
#110 = FACE_OUTER_BOUND ( 'NONE', #36, .T. ) ;
#111 = CIRCLE ( 'NONE', #189, 1.250000000000000000 ) ;
#112 = CARTESIAN_POINT ( 'NONE',  ( 0.000000000000000000, 0.000000000000000000, 0.000000000000000000 ) ) ;
#113 =( NAMED_UNIT ( * ) PLANE_ANGLE_UNIT ( ) SI_UNIT ( $, .RADIAN. ) );
#114 = VERTEX_POINT ( 'NONE', #128 ) ;
#115 = ORIENTED_EDGE ( 'NONE', *, *, #77, .T. ) ;
#116 = CC_DESIGN_PERSON_AND_ORGANIZATION_ASSIGNMENT ( #250, #106, ( #16 ) ) ;
#117 = EDGE_LOOP ( 'NONE', ( #37, #95 ) ) ;
#118 = LOCAL_TIME ( 13, 59, 4.000000000000000000, #69 ) ;
#119 = ORIENTED_EDGE ( 'NONE', *, *, #179, .F. ) ;
#120 = DATE_AND_TIME ( #148, #118 ) ;
#121 = PERSON ( 'NEURÈENÝ', 'NEURÈENÝ', 'NEURÈENÝ', ('NEURÈENÝ'), ('NEURÈENÝ'), ('NEURÈENÝ') ) ;
#122 = DIRECTION ( 'NONE',  ( 1.000000000000000000, 0.000000000000000000, -0.000000000000000000 ) ) ;
#123 = DATE_TIME_ROLE ( 'creation_date' ) ;
#124 = DIRECTION ( 'NONE',  ( -0.000000000000000000, -0.000000000000000000, -1.000000000000000000 ) ) ;
#125 = CYLINDRICAL_SURFACE ( 'NONE', #91, 1.250000000000000000 ) ;
#126 = APPROVAL ( #216, 'NEURÈENÝ' ) ;
#127 = PERSON_AND_ORGANIZATION ( #121, #101 ) ;
#128 = CARTESIAN_POINT ( 'NONE',  ( 0.5999999999999999778, 7.347880794884117764E-17, 200.0000000000000000 ) ) ;
#129 = CIRCLE ( 'NONE', #253, 0.5999999999999999778 ) ;
#130 = DIRECTION ( 'NONE',  ( 1.000000000000000000, 0.000000000000000000, 0.000000000000000000 ) ) ;
#131 = CC_DESIGN_APPROVAL ( #247, ( #71 ) ) ;
#132 = CARTESIAN_POINT ( 'NONE',  ( 0.000000000000000000, 0.000000000000000000, 1.199999999999999956 ) ) ;
#133 =( NAMED_UNIT ( * ) SI_UNIT ( $, .STERADIAN. ) SOLID_ANGLE_UNIT ( ) );
#134 = CC_DESIGN_PERSON_AND_ORGANIZATION_ASSIGNMENT ( #21, #81, ( #71 ) ) ;
#135 = DIRECTION ( 'NONE',  ( 1.000000000000000000, 0.000000000000000000, 0.000000000000000000 ) ) ;
#136 = AXIS2_PLACEMENT_3D ( 'NONE', #6, #205, #163 ) ;
#137 = ADVANCED_BREP_SHAPE_REPRESENTATION ( 'cc67', ( #230, #98 ), #184 ) ;
#138 = AXIS2_PLACEMENT_3D ( 'NONE', #45, #220, #185 ) ;
#139 = CC_DESIGN_APPROVAL ( #92, ( #169 ) ) ;
#140 = CC_DESIGN_DATE_AND_TIME_ASSIGNMENT ( #87, #66, ( #169 ) ) ;
#141 = ORIENTED_EDGE ( 'NONE', *, *, #150, .T. ) ;
#142 = ORIENTED_EDGE ( 'NONE', *, *, #254, .F. ) ;
#143 = ORIENTED_EDGE ( 'NONE', *, *, #186, .F. ) ;
#144 = LOCAL_TIME ( 13, 59, 4.000000000000000000, #243 ) ;
#145 = ORIENTED_EDGE ( 'NONE', *, *, #186, .T. ) ;
#146 = PERSON_AND_ORGANIZATION ( #121, #101 ) ;
#147 = CARTESIAN_POINT ( 'NONE',  ( -0.5999999999999999778, 0.000000000000000000, 200.0000000000000000 ) ) ;
#148 = CALENDAR_DATE ( 2023, 12, 2 ) ;
#149 = DIRECTION ( 'NONE',  ( 0.000000000000000000, 0.000000000000000000, 1.000000000000000000 ) ) ;
#150 = EDGE_CURVE ( 'NONE', #58, #232, #103, .T. ) ;
#151 = CARTESIAN_POINT ( 'NONE',  ( 0.000000000000000000, 0.000000000000000000, 1.199999999999999956 ) ) ;
#152 = CYLINDRICAL_SURFACE ( 'NONE', #34, 0.5999999999999999778 ) ;
#153 = CARTESIAN_POINT ( 'NONE',  ( -0.5999999999999999778, 0.000000000000000000, 1.199999999999999956 ) ) ;
#154 = PRODUCT_DEFINITION_SHAPE ( 'NONE', 'NONE',  #71 ) ;
#155 = FACE_BOUND ( 'NONE', #199, .T. ) ;
#156 = LOCAL_TIME ( 13, 59, 4.000000000000000000, #104 ) ;
#157 = DIRECTION ( 'NONE',  ( 1.000000000000000000, 0.000000000000000000, -0.000000000000000000 ) ) ;
#158 = ORIENTED_EDGE ( 'NONE', *, *, #11, .F. ) ;
#159 = VECTOR ( 'NONE', #67, 1000.000000000000000 ) ;
#160 = ORIENTED_EDGE ( 'NONE', *, *, #63, .T. ) ;
#161 = APPROVAL_PERSON_ORGANIZATION ( #202, #126, #79 ) ;
#162 = CALENDAR_DATE ( 2023, 12, 2 ) ;
#163 = DIRECTION ( 'NONE',  ( 1.000000000000000000, 0.000000000000000000, 0.000000000000000000 ) ) ;
#164 = DIRECTION ( 'NONE',  ( 0.000000000000000000, 0.000000000000000000, 1.000000000000000000 ) ) ;
#165 = PERSON_AND_ORGANIZATION ( #121, #101 ) ;
#166 = AXIS2_PLACEMENT_3D ( 'NONE', #151, #149, #183 ) ;
#167 = CARTESIAN_POINT ( 'NONE',  ( -1.250000000000000000, 0.000000000000000000, 1.199999999999999956 ) ) ;
#168 = AXIS2_PLACEMENT_3D ( 'NONE', #223, #225, #62 ) ;
#169 = SECURITY_CLASSIFICATION ( '', '', #102 ) ;
#170 = CARTESIAN_POINT ( 'NONE',  ( 0.000000000000000000, 0.000000000000000000, 200.0000000000000000 ) ) ;
#171 = APPROVAL_ROLE ( '' ) ;
#172 = CYLINDRICAL_SURFACE ( 'NONE', #65, 0.5999999999999999778 ) ;
#173 = EDGE_CURVE ( 'NONE', #38, #232, #245, .T. ) ;
#174 = DIRECTION ( 'NONE',  ( 1.000000000000000000, 0.000000000000000000, 0.000000000000000000 ) ) ;
#175 = VECTOR ( 'NONE', #105, 1000.000000000000000 ) ;
#176 = UNCERTAINTY_MEASURE_WITH_UNIT (LENGTH_MEASURE( 1.000000000000000082E-05 ), #255, 'distance_accuracy_value', 'NONE');
#177 = APPLICATION_CONTEXT ( 'configuration controlled 3d designs of mechanical parts and assemblies' ) ;
#178 = MECHANICAL_CONTEXT ( 'NONE', #200, 'mechanical' ) ;
#179 = EDGE_CURVE ( 'NONE', #100, #57, #84, .T. ) ;
#180 = ORIENTED_EDGE ( 'NONE', *, *, #11, .T. ) ;
#181 = APPROVAL_ROLE ( '' ) ;
#182 = FACE_OUTER_BOUND ( 'NONE', #19, .T. ) ;
#183 = DIRECTION ( 'NONE',  ( 1.000000000000000000, 0.000000000000000000, 0.000000000000000000 ) ) ;
#184 =( GEOMETRIC_REPRESENTATION_CONTEXT ( 3 ) GLOBAL_UNCERTAINTY_ASSIGNED_CONTEXT ( ( #176 ) ) GLOBAL_UNIT_ASSIGNED_CONTEXT ( ( #255, #113, #133 ) ) REPRESENTATION_CONTEXT ( 'NONE', 'WORKASPACE' ) );
#185 = DIRECTION ( 'NONE',  ( 1.000000000000000000, 0.000000000000000000, 0.000000000000000000 ) ) ;
#186 = EDGE_CURVE ( 'NONE', #57, #215, #5, .T. ) ;
#187 = CALENDAR_DATE ( 2023, 12, 2 ) ;
#188 = DIRECTION ( 'NONE',  ( -0.000000000000000000, -0.000000000000000000, -1.000000000000000000 ) ) ;
#189 = AXIS2_PLACEMENT_3D ( 'NONE', #249, #222, #64 ) ;
#190 = CARTESIAN_POINT ( 'NONE',  ( 0.5999999999999999778, 7.347880794884117764E-17, 1.199999999999999956 ) ) ;
#191 = CARTESIAN_POINT ( 'NONE',  ( 1.250000000000000000, 1.530808498934191571E-16, 0.000000000000000000 ) ) ;
#192 = DIRECTION ( 'NONE',  ( 1.000000000000000000, 0.000000000000000000, -0.000000000000000000 ) ) ;
#193 = ADVANCED_FACE ( 'NONE', ( #244 ), #125, .T. ) ;
#194 = CC_DESIGN_APPROVAL ( #126, ( #16 ) ) ;
#195 = DIRECTION ( 'NONE',  ( 0.000000000000000000, 0.000000000000000000, 1.000000000000000000 ) ) ;
#196 = CC_DESIGN_SECURITY_CLASSIFICATION ( #169, ( #16 ) ) ;
#197 = EDGE_LOOP ( 'NONE', ( #56, #20, #141, #115 ) ) ;
#198 = APPLICATION_PROTOCOL_DEFINITION ( 'international standard', 'config_control_design', 1994, #177 ) ;
#199 = EDGE_LOOP ( 'NONE', ( #22, #78 ) ) ;
#200 = APPLICATION_CONTEXT ( 'configuration controlled 3d designs of mechanical parts and assemblies' ) ;
#201 = ORIENTED_EDGE ( 'NONE', *, *, #241, .F. ) ;
#202 = PERSON_AND_ORGANIZATION ( #121, #101 ) ;
#203 = LINE ( 'NONE', #207, #175 ) ;
#204 = COORDINATED_UNIVERSAL_TIME_OFFSET ( 1, 0, .AHEAD. ) ;
#205 = DIRECTION ( 'NONE',  ( 0.000000000000000000, 0.000000000000000000, 1.000000000000000000 ) ) ;
#206 = CARTESIAN_POINT ( 'NONE',  ( 0.000000000000000000, 0.000000000000000000, 1.199999999999999956 ) ) ;
#207 = CARTESIAN_POINT ( 'NONE',  ( -1.250000000000000000, 0.000000000000000000, 1.199999999999999956 ) ) ;
#208 = CC_DESIGN_PERSON_AND_ORGANIZATION_ASSIGNMENT ( #235, #212, ( #8 ) ) ;
#209 = CARTESIAN_POINT ( 'NONE',  ( 0.000000000000000000, 0.000000000000000000, 200.0000000000000000 ) ) ;
#210 = AXIS2_PLACEMENT_3D ( 'NONE', #132, #32, #157 ) ;
#211 = CIRCLE ( 'NONE', #221, 0.5999999999999999778 ) ;
#212 = PERSON_AND_ORGANIZATION_ROLE ( 'design_owner' ) ;
#213 = ORIENTED_EDGE ( 'NONE', *, *, #63, .F. ) ;
#214 = ORIENTED_EDGE ( 'NONE', *, *, #150, .F. ) ;
#215 = VERTEX_POINT ( 'NONE', #191 ) ;
#216 = APPROVAL_STATUS ( 'not_yet_approved' ) ;
#217 = VERTEX_POINT ( 'NONE', #10 ) ;
#218 = APPROVAL_DATE_TIME ( #120, #92 ) ;
#219 = ADVANCED_FACE ( 'NONE', ( #155, #110 ), #72, .T. ) ;
#220 = DIRECTION ( 'NONE',  ( 0.000000000000000000, 0.000000000000000000, 1.000000000000000000 ) ) ;
#221 = AXIS2_PLACEMENT_3D ( 'NONE', #170, #164, #130 ) ;
#222 = DIRECTION ( 'NONE',  ( 0.000000000000000000, 0.000000000000000000, 1.000000000000000000 ) ) ;
#223 = CARTESIAN_POINT ( 'NONE',  ( 0.000000000000000000, 0.000000000000000000, 1.199999999999999956 ) ) ;
#224 = DATE_AND_TIME ( #3, #60 ) ;
#225 = DIRECTION ( 'NONE',  ( 0.000000000000000000, 0.000000000000000000, 1.000000000000000000 ) ) ;
#226 = DIRECTION ( 'NONE',  ( 0.000000000000000000, 0.000000000000000000, 1.000000000000000000 ) ) ;
#227 = DESIGN_CONTEXT ( 'detailed design', #177, 'design' ) ;
#228 = FACE_OUTER_BOUND ( 'NONE', #117, .T. ) ;
#229 = ADVANCED_FACE ( 'NONE', ( #228 ), #93, .T. ) ;
#230 = MANIFOLD_SOLID_BREP ( 'Pøidat vysunutím3', #233 ) ;
#231 = DIRECTION ( 'NONE',  ( 0.000000000000000000, 0.000000000000000000, 1.000000000000000000 ) ) ;
#232 = VERTEX_POINT ( 'NONE', #153 ) ;
#233 = CLOSED_SHELL ( 'NONE', ( #51, #193, #73, #219, #1, #35, #229 ) ) ;
#234 = VECTOR ( 'NONE', #46, 1000.000000000000000 ) ;
#235 = PERSON_AND_ORGANIZATION ( #121, #101 ) ;
#236 = ORIENTED_EDGE ( 'NONE', *, *, #241, .T. ) ;
#237 = PRODUCT_RELATED_PRODUCT_CATEGORY ( 'detail', '', ( #8 ) ) ;
#238 = EDGE_LOOP ( 'NONE', ( #142, #240, #74, #214 ) ) ;
#239 = CIRCLE ( 'NONE', #18, 1.250000000000000000 ) ;
#240 = ORIENTED_EDGE ( 'NONE', *, *, #89, .T. ) ;
#241 = EDGE_CURVE ( 'NONE', #57, #100, #239, .T. ) ;
#242 = DIRECTION ( 'NONE',  ( -0.000000000000000000, -0.000000000000000000, -1.000000000000000000 ) ) ;
#243 = COORDINATED_UNIVERSAL_TIME_OFFSET ( 1, 0, .AHEAD. ) ;
#244 = FACE_OUTER_BOUND ( 'NONE', #99, .T. ) ;
#245 = CIRCLE ( 'NONE', #168, 0.5999999999999999778 ) ;
#246 = DATE_AND_TIME ( #187, #156 ) ;
#247 = APPROVAL ( #97, 'NEURÈENÝ' ) ;
#248 = CARTESIAN_POINT ( 'NONE',  ( 0.000000000000000000, 0.000000000000000000, 0.000000000000000000 ) ) ;
#249 = CARTESIAN_POINT ( 'NONE',  ( 0.000000000000000000, 0.000000000000000000, 0.000000000000000000 ) ) ;
#250 = PERSON_AND_ORGANIZATION ( #121, #101 ) ;
#251 = CARTESIAN_POINT ( 'NONE',  ( 1.250000000000000000, 1.530808498934191571E-16, 1.199999999999999956 ) ) ;
#252 = CIRCLE ( 'NONE', #136, 1.250000000000000000 ) ;
#253 = AXIS2_PLACEMENT_3D ( 'NONE', #52, #90, #174 ) ;
#254 = EDGE_CURVE ( 'NONE', #114, #58, #129, .T. ) ;
#255 =( LENGTH_UNIT ( ) NAMED_UNIT ( * ) SI_UNIT ( .MILLI., .METRE. ) );
ENDSEC;
END-ISO-10303-21;
