ISO-10303-21;
HEADER;
FILE_DESCRIPTION (( 'STEP AP203' ),
    '1' );
FILE_NAME ('87a3.STEP',
    '2022-07-07T10:28:43',
    ( '' ),
    ( '' ),
    'SwSTEP 2.0',
    'SolidWorks 2019',
    '' );
FILE_SCHEMA (( 'CONFIG_CONTROL_DESIGN' ));
ENDSEC;

DATA;
#1 = CIRCLE ( 'NONE', #197, 3.500000000000000444 ) ;
#2 = AXIS2_PLACEMENT_3D ( 'NONE', #20, #131, #256 ) ;
#3 = PERSON_AND_ORGANIZATION ( #163, #39 ) ;
#4 = ORIENTED_EDGE ( 'NONE', *, *, #140, .F. ) ;
#5 = EDGE_CURVE ( 'NONE', #113, #143, #248, .T. ) ;
#6 = DATE_AND_TIME ( #282, #151 ) ;
#7 = ORIENTED_EDGE ( 'NONE', *, *, #213, .T. ) ;
#8 = ORIENTED_EDGE ( 'NONE', *, *, #213, .F. ) ;
#9 = ORIENTED_EDGE ( 'NONE', *, *, #204, .T. ) ;
#10 = CARTESIAN_POINT ( 'NONE',  ( -3.500000000000000444, 0.000000000000000000, 3.000000000000000000 ) ) ;
#11 = EDGE_CURVE ( 'NONE', #261, #143, #1, .T. ) ;
#12 = ORIENTED_EDGE ( 'NONE', *, *, #89, .F. ) ;
#13 = CARTESIAN_POINT ( 'NONE',  ( 3.500000000000000444, 4.286263797015737088E-16, 3.000000000000000000 ) ) ;
#14 = LOCAL_TIME ( 12, 28, 43.00000000000000000, #264 ) ;
#15 = DIRECTION ( 'NONE',  ( 0.000000000000000000, 0.000000000000000000, 1.000000000000000000 ) ) ;
#16 = DIRECTION ( 'NONE',  ( 1.000000000000000000, 0.000000000000000000, 0.000000000000000000 ) ) ;
#17 = LINE ( 'NONE', #19, #30 ) ;
#18 = VECTOR ( 'NONE', #75, 1000.000000000000000 ) ;
#19 = CARTESIAN_POINT ( 'NONE',  ( 1.750000000000000000, 2.143131898507868297E-16, 103.0000000000000142 ) ) ;
#20 = CARTESIAN_POINT ( 'NONE',  ( 0.000000000000000000, 0.000000000000000000, 3.199999999999994404 ) ) ;
#21 = PRODUCT_DEFINITION_FORMATION_WITH_SPECIFIED_SOURCE ( 'LIBOVOLNÝ', '', #254, .NOT_KNOWN. ) ;
#22 = APPROVAL_STATUS ( 'not_yet_approved' ) ;
#23 = PERSON_AND_ORGANIZATION_ROLE ( 'creator' ) ;
#24 = SECURITY_CLASSIFICATION_LEVEL ( 'unclassified' ) ;
#25 = EDGE_LOOP ( 'NONE', ( #9, #135 ) ) ;
#26 = APPLICATION_PROTOCOL_DEFINITION ( 'international standard', 'config_control_design', 1994, #146 ) ;
#27 = PERSON_AND_ORGANIZATION ( #163, #39 ) ;
#28 = ORIENTED_EDGE ( 'NONE', *, *, #296, .F. ) ;
#29 = AXIS2_PLACEMENT_3D ( 'NONE', #148, #144, #272 ) ;
#30 = VECTOR ( 'NONE', #80, 1000.000000000000000 ) ;
#31 = ORIENTED_EDGE ( 'NONE', *, *, #243, .F. ) ;
#32 = CARTESIAN_POINT ( 'NONE',  ( 0.000000000000000000, 0.000000000000000000, 0.000000000000000000 ) ) ;
#33 = CARTESIAN_POINT ( 'NONE',  ( 0.000000000000000000, 0.000000000000000000, 0.000000000000000000 ) ) ;
#34 = CARTESIAN_POINT ( 'NONE',  ( 0.000000000000000000, 0.000000000000000000, 3.199999999999994404 ) ) ;
#35 = CIRCLE ( 'NONE', #101, 1.750000000000000000 ) ;
#36 = DIRECTION ( 'NONE',  ( -1.000000000000000000, 0.000000000000000000, 0.000000000000000000 ) ) ;
#37 = LINE ( 'NONE', #300, #251 ) ;
#38 = VECTOR ( 'NONE', #269, 1000.000000000000000 ) ;
#39 = ORGANIZATION ( 'NEURÈENÝ', 'NEURÈENÝ', '' ) ;
#40 = CARTESIAN_POINT ( 'NONE',  ( 0.000000000000000000, 0.000000000000000000, 3.199999999999994404 ) ) ;
#41 = PRODUCT_RELATED_PRODUCT_CATEGORY ( 'detail', '', ( #254 ) ) ;
#42 = VERTEX_POINT ( 'NONE', #173 ) ;
#43 = DIRECTION ( 'NONE',  ( -1.000000000000000000, 0.000000000000000000, 0.000000000000000000 ) ) ;
#44 = CC_DESIGN_PERSON_AND_ORGANIZATION_ASSIGNMENT ( #87, #85, ( #254 ) ) ;
#45 = ORIENTED_EDGE ( 'NONE', *, *, #253, .T. ) ;
#46 = DATE_AND_TIME ( #208, #304 ) ;
#47 = APPROVAL_DATE_TIME ( #6, #121 ) ;
#48 = PRODUCT_DEFINITION ( 'NEZNÁMÝ', '', #21, #125 ) ;
#49 = ORIENTED_EDGE ( 'NONE', *, *, #204, .F. ) ;
#50 = CC_DESIGN_APPROVAL ( #301, ( #21 ) ) ;
#51 = COORDINATED_UNIVERSAL_TIME_OFFSET ( 1, 0, .AHEAD. ) ;
#52 = ORIENTED_EDGE ( 'NONE', *, *, #288, .T. ) ;
#53 = ORIENTED_EDGE ( 'NONE', *, *, #150, .T. ) ;
#54 = ADVANCED_FACE ( 'NONE', ( #127 ), #216, .T. ) ;
#55 = DIRECTION ( 'NONE',  ( 1.000000000000000000, 0.000000000000000000, 0.000000000000000000 ) ) ;
#56 = DIRECTION ( 'NONE',  ( 1.000000000000000000, 0.000000000000000000, -0.000000000000000000 ) ) ;
#57 = ADVANCED_FACE ( 'NONE', ( #76 ), #219, .F. ) ;
#58 = VERTEX_POINT ( 'NONE', #217 ) ;
#59 = FACE_OUTER_BOUND ( 'NONE', #170, .T. ) ;
#60 = FACE_OUTER_BOUND ( 'NONE', #25, .T. ) ;
#61 = CC_DESIGN_APPROVAL ( #307, ( #198 ) ) ;
#62 = ADVANCED_FACE ( 'NONE', ( #245 ), #124, .T. ) ;
#63 = DIRECTION ( 'NONE',  ( 1.000000000000000000, 0.000000000000000000, 0.000000000000000000 ) ) ;
#64 = CARTESIAN_POINT ( 'NONE',  ( 0.000000000000000000, 0.000000000000000000, 3.000000000000000000 ) ) ;
#65 = CIRCLE ( 'NONE', #115, 3.500000000000000444 ) ;
#66 = CARTESIAN_POINT ( 'NONE',  ( 0.000000000000000000, 0.000000000000000000, 103.0000000000000142 ) ) ;
#67 = APPROVAL_ROLE ( '' ) ;
#68 = CIRCLE ( 'NONE', #303, 0.1999999999999998723 ) ;
#69 = DATE_TIME_ROLE ( 'creation_date' ) ;
#70 = CIRCLE ( 'NONE', #138, 1.950000000000000178 ) ;
#71 = PERSON_AND_ORGANIZATION ( #163, #39 ) ;
#72 = EDGE_LOOP ( 'NONE', ( #28, #102, #136, #273 ) ) ;
#73 = AXIS2_PLACEMENT_3D ( 'NONE', #64, #200, #107 ) ;
#74 = ORIENTED_EDGE ( 'NONE', *, *, #89, .T. ) ;
#75 = DIRECTION ( 'NONE',  ( -0.000000000000000000, -0.000000000000000000, -1.000000000000000000 ) ) ;
#76 = FACE_OUTER_BOUND ( 'NONE', #203, .T. ) ;
#77 = CIRCLE ( 'NONE', #284, 1.750000000000000000 ) ;
#78 = DIRECTION ( 'NONE',  ( 1.000000000000000000, 0.000000000000000000, 0.000000000000000000 ) ) ;
#79 = DIRECTION ( 'NONE',  ( 0.000000000000000000, 0.000000000000000000, 1.000000000000000000 ) ) ;
#80 = DIRECTION ( 'NONE',  ( -0.000000000000000000, -0.000000000000000000, -1.000000000000000000 ) ) ;
#81 = PLANE ( 'NONE',  #73 ) ;
#82 = CARTESIAN_POINT ( 'NONE',  ( 0.000000000000000000, 0.000000000000000000, 3.000000000000000000 ) ) ;
#83 = DIRECTION ( 'NONE',  ( -0.000000000000000000, -0.000000000000000000, -1.000000000000000000 ) ) ;
#84 = CARTESIAN_POINT ( 'NONE',  ( -3.500000000000000444, 0.000000000000000000, 3.000000000000000000 ) ) ;
#85 = PERSON_AND_ORGANIZATION_ROLE ( 'design_owner' ) ;
#86 = DIRECTION ( 'NONE',  ( 0.000000000000000000, 0.000000000000000000, 1.000000000000000000 ) ) ;
#87 = PERSON_AND_ORGANIZATION ( #163, #39 ) ;
#88 = AXIS2_PLACEMENT_3D ( 'NONE', #191, #171, #78 ) ;
#89 = EDGE_CURVE ( 'NONE', #96, #58, #68, .T. ) ;
#90 = AXIS2_PLACEMENT_3D ( 'NONE', #281, #134, #43 ) ;
#91 = PERSON_AND_ORGANIZATION ( #163, #39 ) ;
#92 = EDGE_LOOP ( 'NONE', ( #287, #49, #94, #209 ) ) ;
#93 = DATE_TIME_ROLE ( 'classification_date' ) ;
#94 = ORIENTED_EDGE ( 'NONE', *, *, #105, .T. ) ;
#95 = ADVANCED_FACE ( 'NONE', ( #59 ), #279, .F. ) ;
#96 = VERTEX_POINT ( 'NONE', #192 ) ;
#97 = DIRECTION ( 'NONE',  ( 1.000000000000000000, 0.000000000000000000, 0.000000000000000000 ) ) ;
#98 = CARTESIAN_POINT ( 'NONE',  ( 3.500000000000000444, 4.286263797015737088E-16, 0.000000000000000000 ) ) ;
#99 = DIRECTION ( 'NONE',  ( 0.000000000000000000, 0.000000000000000000, 1.000000000000000000 ) ) ;
#100 = EDGE_CURVE ( 'NONE', #160, #96, #77, .T. ) ;
#101 = AXIS2_PLACEMENT_3D ( 'NONE', #66, #175, #278 ) ;
#102 = ORIENTED_EDGE ( 'NONE', *, *, #5, .T. ) ;
#103 = CC_DESIGN_PERSON_AND_ORGANIZATION_ASSIGNMENT ( #27, #119, ( #198 ) ) ;
#104 = CARTESIAN_POINT ( 'NONE',  ( 3.500000000000000444, 4.286263797015737088E-16, 3.000000000000000000 ) ) ;
#105 = EDGE_CURVE ( 'NONE', #158, #261, #130, .T. ) ;
#106 = ADVANCED_BREP_SHAPE_REPRESENTATION ( '87a3', ( #235, #157 ), #280 ) ;
#107 = DIRECTION ( 'NONE',  ( 1.000000000000000000, 0.000000000000000000, -0.000000000000000000 ) ) ;
#108 = AXIS2_PLACEMENT_3D ( 'NONE', #297, #189, #292 ) ;
#109 = AXIS2_PLACEMENT_3D ( 'NONE', #295, #79, #195 ) ;
#110 =( NAMED_UNIT ( * ) PLANE_ANGLE_UNIT ( ) SI_UNIT ( $, .RADIAN. ) );
#111 = ORIENTED_EDGE ( 'NONE', *, *, #253, .F. ) ;
#112 = CARTESIAN_POINT ( 'NONE',  ( 1.950000000000000178, 0.000000000000000000, 3.199999999999994404 ) ) ;
#113 = VERTEX_POINT ( 'NONE', #104 ) ;
#114 = CARTESIAN_POINT ( 'NONE',  ( -3.500000000000000444, 0.000000000000000000, 0.000000000000000000 ) ) ;
#115 = AXIS2_PLACEMENT_3D ( 'NONE', #152, #252, #276 ) ;
#116 = APPROVAL_ROLE ( '' ) ;
#117 = CALENDAR_DATE ( 2022, 7, 7 ) ;
#118 = ORIENTED_EDGE ( 'NONE', *, *, #11, .F. ) ;
#119 = PERSON_AND_ORGANIZATION_ROLE ( 'classification_officer' ) ;
#120 = ORIENTED_EDGE ( 'NONE', *, *, #177, .F. ) ;
#121 = APPROVAL ( #211, 'NEURÈENÝ' ) ;
#122 = CALENDAR_DATE ( 2022, 7, 7 ) ;
#123 = CARTESIAN_POINT ( 'NONE',  ( 0.000000000000000000, 0.000000000000000000, 103.0000000000000142 ) ) ;
#124 = PLANE ( 'NONE',  #218 ) ;
#125 = DESIGN_CONTEXT ( 'detailed design', #193, 'design' ) ;
#126 = DIRECTION ( 'NONE',  ( 0.000000000000000000, 0.000000000000000000, 1.000000000000000000 ) ) ;
#127 = FACE_OUTER_BOUND ( 'NONE', #92, .T. ) ;
#128 = AXIS2_PLACEMENT_3D ( 'NONE', #250, #268, #97 ) ;
#129 = LOCAL_TIME ( 12, 28, 43.00000000000000000, #286 ) ;
#130 = LINE ( 'NONE', #10, #18 ) ;
#131 = DIRECTION ( 'NONE',  ( 0.000000000000000000, 0.000000000000000000, 1.000000000000000000 ) ) ;
#132 = DIRECTION ( 'NONE',  ( 0.000000000000000000, 0.000000000000000000, -1.000000000000000000 ) ) ;
#133 = TOROIDAL_SURFACE ( 'NONE', #2, 1.950000000000000178, 0.2000000000000000111 ) ;
#134 = DIRECTION ( 'NONE',  ( -0.000000000000000000, -0.000000000000000000, -1.000000000000000000 ) ) ;
#135 = ORIENTED_EDGE ( 'NONE', *, *, #296, .T. ) ;
#136 = ORIENTED_EDGE ( 'NONE', *, *, #155, .T. ) ;
#137 = APPLICATION_PROTOCOL_DEFINITION ( 'international standard', 'config_control_design', 1994, #193 ) ;
#138 = AXIS2_PLACEMENT_3D ( 'NONE', #82, #176, #260 ) ;
#139 = PERSON_AND_ORGANIZATION_ROLE ( 'creator' ) ;
#140 = EDGE_CURVE ( 'NONE', #246, #222, #183, .T. ) ;
#141 = CC_DESIGN_APPROVAL ( #121, ( #48 ) ) ;
#142 = DATE_AND_TIME ( #207, #188 ) ;
#143 = VERTEX_POINT ( 'NONE', #98 ) ;
#144 = DIRECTION ( 'NONE',  ( -0.000000000000000000, -0.000000000000000000, -1.000000000000000000 ) ) ;
#145 = DIRECTION ( 'NONE',  ( 0.000000000000000000, 0.000000000000000000, 1.000000000000000000 ) ) ;
#146 = APPLICATION_CONTEXT ( 'configuration controlled 3d designs of mechanical parts and assemblies' ) ;
#147 = AXIS2_PLACEMENT_3D ( 'NONE', #299, #230, #36 ) ;
#148 = CARTESIAN_POINT ( 'NONE',  ( 0.000000000000000000, 0.000000000000000000, 3.000000000000000000 ) ) ;
#149 = EDGE_LOOP ( 'NONE', ( #270, #4, #45, #212 ) ) ;
#150 = EDGE_CURVE ( 'NONE', #42, #58, #226, .T. ) ;
#151 = LOCAL_TIME ( 12, 28, 43.00000000000000000, #181 ) ;
#152 = CARTESIAN_POINT ( 'NONE',  ( 0.000000000000000000, 0.000000000000000000, 3.000000000000000000 ) ) ;
#153 = FACE_OUTER_BOUND ( 'NONE', #169, .T. ) ;
#154 = DIRECTION ( 'NONE',  ( 0.000000000000000000, -1.000000000000000000, 0.000000000000000000 ) ) ;
#155 = EDGE_CURVE ( 'NONE', #143, #261, #182, .T. ) ;
#156 = DIRECTION ( 'NONE',  ( 0.000000000000000000, 0.000000000000000000, 1.000000000000000000 ) ) ;
#157 = AXIS2_PLACEMENT_3D ( 'NONE', #265, #86, #305 ) ;
#158 = VERTEX_POINT ( 'NONE', #84 ) ;
#159 = CYLINDRICAL_SURFACE ( 'NONE', #147, 1.750000000000000000 ) ;
#160 = VERTEX_POINT ( 'NONE', #228 ) ;
#161 = APPROVAL_ROLE ( '' ) ;
#162 = ADVANCED_FACE ( 'NONE', ( #225, #60 ), #81, .T. ) ;
#163 = PERSON ( 'NEURÈENÝ', 'NEURÈENÝ', 'NEURÈENÝ', ('NEURÈENÝ'), ('NEURÈENÝ'), ('NEURÈENÝ') ) ;
#164 = SHAPE_DEFINITION_REPRESENTATION ( #201, #106 ) ;
#165 = ADVANCED_FACE ( 'NONE', ( #153 ), #159, .T. ) ;
#166 = APPROVAL_STATUS ( 'not_yet_approved' ) ;
#167 = CC_DESIGN_DATE_AND_TIME_ASSIGNMENT ( #46, #93, ( #198 ) ) ;
#168 = ORIENTED_EDGE ( 'NONE', *, *, #100, .F. ) ;
#169 = EDGE_LOOP ( 'NONE', ( #231, #174, #239, #111 ) ) ;
#170 = EDGE_LOOP ( 'NONE', ( #12, #168, #242, #8 ) ) ;
#171 = DIRECTION ( 'NONE',  ( -0.000000000000000000, -0.000000000000000000, -1.000000000000000000 ) ) ;
#172 = AXIS2_PLACEMENT_3D ( 'NONE', #205, #83, #277 ) ;
#173 = CARTESIAN_POINT ( 'NONE',  ( 1.950000000000000178, 0.000000000000000000, 2.999999999999997335 ) ) ;
#174 = ORIENTED_EDGE ( 'NONE', *, *, #283, .T. ) ;
#175 = DIRECTION ( 'NONE',  ( 0.000000000000000000, 0.000000000000000000, 1.000000000000000000 ) ) ;
#176 = DIRECTION ( 'NONE',  ( -0.000000000000000000, -0.000000000000000000, -1.000000000000000000 ) ) ;
#177 = EDGE_CURVE ( 'NONE', #96, #160, #275, .T. ) ;
#178 = CARTESIAN_POINT ( 'NONE',  ( 1.750000000000000000, 2.143131898507868297E-16, 103.0000000000000142 ) ) ;
#179 = DIRECTION ( 'NONE',  ( 1.000000000000000000, 0.000000000000000000, 0.000000000000000000 ) ) ;
#180 = PERSON_AND_ORGANIZATION ( #163, #39 ) ;
#181 = COORDINATED_UNIVERSAL_TIME_OFFSET ( 1, 0, .AHEAD. ) ;
#182 = CIRCLE ( 'NONE', #206, 3.500000000000000444 ) ;
#183 = CIRCLE ( 'NONE', #108, 1.750000000000000000 ) ;
#184 = CC_DESIGN_SECURITY_CLASSIFICATION ( #198, ( #21 ) ) ;
#185 = PERSON_AND_ORGANIZATION ( #163, #39 ) ;
#186 =( NAMED_UNIT ( * ) SI_UNIT ( $, .STERADIAN. ) SOLID_ANGLE_UNIT ( ) );
#187 = ORIENTED_EDGE ( 'NONE', *, *, #155, .F. ) ;
#188 = LOCAL_TIME ( 12, 28, 43.00000000000000000, #233 ) ;
#189 = DIRECTION ( 'NONE',  ( 0.000000000000000000, 0.000000000000000000, 1.000000000000000000 ) ) ;
#190 = CC_DESIGN_PERSON_AND_ORGANIZATION_ASSIGNMENT ( #185, #139, ( #48 ) ) ;
#191 = CARTESIAN_POINT ( 'NONE',  ( 0.000000000000000000, 0.000000000000000000, 3.000000000000000000 ) ) ;
#192 = CARTESIAN_POINT ( 'NONE',  ( -1.750000000000000000, 0.000000000000000000, 3.199999999999994404 ) ) ;
#193 = APPLICATION_CONTEXT ( 'configuration controlled 3d designs of mechanical parts and assemblies' ) ;
#194 = ORIENTED_EDGE ( 'NONE', *, *, #150, .F. ) ;
#195 = DIRECTION ( 'NONE',  ( 1.000000000000000000, 0.000000000000000000, -0.000000000000000000 ) ) ;
#196 = CARTESIAN_POINT ( 'NONE',  ( -1.750000000000000000, 0.000000000000000000, 103.0000000000000142 ) ) ;
#197 = AXIS2_PLACEMENT_3D ( 'NONE', #33, #99, #55 ) ;
#198 = SECURITY_CLASSIFICATION ( '', '', #24 ) ;
#199 = CARTESIAN_POINT ( 'NONE',  ( 0.000000000000000000, 0.000000000000000000, 3.000000000000000000 ) ) ;
#200 = DIRECTION ( 'NONE',  ( 0.000000000000000000, 0.000000000000000000, 1.000000000000000000 ) ) ;
#201 = PRODUCT_DEFINITION_SHAPE ( 'NONE', 'NONE',  #48 ) ;
#202 = DIRECTION ( 'NONE',  ( -0.000000000000000000, -0.000000000000000000, -1.000000000000000000 ) ) ;
#203 = EDGE_LOOP ( 'NONE', ( #118, #187 ) ) ;
#204 = EDGE_CURVE ( 'NONE', #158, #113, #285, .T. ) ;
#205 = CARTESIAN_POINT ( 'NONE',  ( 0.000000000000000000, 0.000000000000000000, 103.0000000000000142 ) ) ;
#206 = AXIS2_PLACEMENT_3D ( 'NONE', #32, #126, #16 ) ;
#207 = CALENDAR_DATE ( 2022, 7, 7 ) ;
#208 = CALENDAR_DATE ( 2022, 7, 7 ) ;
#209 = ORIENTED_EDGE ( 'NONE', *, *, #11, .T. ) ;
#210 = APPROVAL_PERSON_ORGANIZATION ( #3, #121, #67 ) ;
#211 = APPROVAL_STATUS ( 'not_yet_approved' ) ;
#212 = ORIENTED_EDGE ( 'NONE', *, *, #177, .T. ) ;
#213 = EDGE_CURVE ( 'NONE', #58, #42, #70, .T. ) ;
#214 = DIRECTION ( 'NONE',  ( 1.224646799147353207E-16, 1.000000000000000000, -0.000000000000000000 ) ) ;
#215 = APPROVAL_PERSON_ORGANIZATION ( #180, #301, #161 ) ;
#216 = CYLINDRICAL_SURFACE ( 'NONE', #29, 3.500000000000000444 ) ;
#217 = CARTESIAN_POINT ( 'NONE',  ( -1.950000000000000178, 2.388061258337339136E-16, 2.999999999999997335 ) ) ;
#218 = AXIS2_PLACEMENT_3D ( 'NONE', #123, #15, #56 ) ;
#219 = PLANE ( 'NONE',  #109 ) ;
#220 = CC_DESIGN_PERSON_AND_ORGANIZATION_ASSIGNMENT ( #91, #238, ( #21 ) ) ;
#221 = CIRCLE ( 'NONE', #271, 0.2000000000000000944 ) ;
#222 = VERTEX_POINT ( 'NONE', #178 ) ;
#223 = CYLINDRICAL_SURFACE ( 'NONE', #90, 3.500000000000000444 ) ;
#224 = ADVANCED_FACE ( 'NONE', ( #257 ), #223, .T. ) ;
#225 = FACE_BOUND ( 'NONE', #259, .T. ) ;
#226 = CIRCLE ( 'NONE', #88, 1.950000000000000178 ) ;
#227 = AXIS2_PLACEMENT_3D ( 'NONE', #40, #156, #63 ) ;
#228 = CARTESIAN_POINT ( 'NONE',  ( 1.750000000000000000, 2.143131898507868297E-16, 3.199999999999994404 ) ) ;
#229 = DIRECTION ( 'NONE',  ( 0.000000000000000000, 0.000000000000000000, 1.000000000000000000 ) ) ;
#230 = DIRECTION ( 'NONE',  ( -0.000000000000000000, -0.000000000000000000, -1.000000000000000000 ) ) ;
#231 = ORIENTED_EDGE ( 'NONE', *, *, #288, .F. ) ;
#232 = DATE_AND_TIME ( #122, #129 ) ;
#233 = COORDINATED_UNIVERSAL_TIME_OFFSET ( 1, 0, .AHEAD. ) ;
#234 = APPROVAL_DATE_TIME ( #289, #301 ) ;
#235 = MANIFOLD_SOLID_BREP ( 'Zaoblit1', #237 ) ;
#236 = ADVANCED_FACE ( 'NONE', ( #255 ), #133, .F. ) ;
#237 = CLOSED_SHELL ( 'NONE', ( #236, #165, #224, #54, #162, #57, #267, #62, #95 ) ) ;
#238 = PERSON_AND_ORGANIZATION_ROLE ( 'design_supplier' ) ;
#239 = ORIENTED_EDGE ( 'NONE', *, *, #100, .T. ) ;
#240 = AXIS2_PLACEMENT_3D ( 'NONE', #199, #229, #179 ) ;
#241 = APPROVAL_DATE_TIME ( #142, #307 ) ;
#242 = ORIENTED_EDGE ( 'NONE', *, *, #243, .T. ) ;
#243 = EDGE_CURVE ( 'NONE', #160, #42, #221, .T. ) ;
#244 = UNCERTAINTY_MEASURE_WITH_UNIT (LENGTH_MEASURE( 1.000000000000000082E-05 ), #298, 'distance_accuracy_value', 'NONE');
#245 = FACE_OUTER_BOUND ( 'NONE', #266, .T. ) ;
#246 = VERTEX_POINT ( 'NONE', #196 ) ;
#247 = DIRECTION ( 'NONE',  ( 1.000000000000000000, 0.000000000000000000, 0.000000000000000000 ) ) ;
#248 = LINE ( 'NONE', #13, #38 ) ;
#249 = CC_DESIGN_PERSON_AND_ORGANIZATION_ASSIGNMENT ( #262, #23, ( #21 ) ) ;
#250 = CARTESIAN_POINT ( 'NONE',  ( 0.000000000000000000, 0.000000000000000000, 3.199999999999994404 ) ) ;
#251 = VECTOR ( 'NONE', #202, 1000.000000000000000 ) ;
#252 = DIRECTION ( 'NONE',  ( 0.000000000000000000, 0.000000000000000000, 1.000000000000000000 ) ) ;
#253 = EDGE_CURVE ( 'NONE', #246, #96, #37, .T. ) ;
#254 = PRODUCT ( '87a3', '87a3', '', ( #306 ) ) ;
#255 = FACE_OUTER_BOUND ( 'NONE', #291, .T. ) ;
#256 = DIRECTION ( 'NONE',  ( 1.000000000000000000, 0.000000000000000000, 0.000000000000000000 ) ) ;
#257 = FACE_OUTER_BOUND ( 'NONE', #72, .T. ) ;
#258 = CC_DESIGN_DATE_AND_TIME_ASSIGNMENT ( #232, #69, ( #48 ) ) ;
#259 = EDGE_LOOP ( 'NONE', ( #53, #7 ) ) ;
#260 = DIRECTION ( 'NONE',  ( 1.000000000000000000, 0.000000000000000000, 0.000000000000000000 ) ) ;
#261 = VERTEX_POINT ( 'NONE', #114 ) ;
#262 = PERSON_AND_ORGANIZATION ( #163, #39 ) ;
#263 = APPROVAL_PERSON_ORGANIZATION ( #71, #307, #116 ) ;
#264 = COORDINATED_UNIVERSAL_TIME_OFFSET ( 1, 0, .AHEAD. ) ;
#265 = CARTESIAN_POINT ( 'NONE',  ( 0.000000000000000000, 0.000000000000000000, 0.000000000000000000 ) ) ;
#266 = EDGE_LOOP ( 'NONE', ( #290, #52 ) ) ;
#267 = ADVANCED_FACE ( 'NONE', ( #302 ), #274, .T. ) ;
#268 = DIRECTION ( 'NONE',  ( 0.000000000000000000, 0.000000000000000000, 1.000000000000000000 ) ) ;
#269 = DIRECTION ( 'NONE',  ( -0.000000000000000000, -0.000000000000000000, -1.000000000000000000 ) ) ;
#270 = ORIENTED_EDGE ( 'NONE', *, *, #283, .F. ) ;
#271 = AXIS2_PLACEMENT_3D ( 'NONE', #112, #154, #132 ) ;
#272 = DIRECTION ( 'NONE',  ( -1.000000000000000000, 0.000000000000000000, 0.000000000000000000 ) ) ;
#273 = ORIENTED_EDGE ( 'NONE', *, *, #105, .F. ) ;
#274 = CYLINDRICAL_SURFACE ( 'NONE', #172, 1.750000000000000000 ) ;
#275 = CIRCLE ( 'NONE', #227, 1.750000000000000000 ) ;
#276 = DIRECTION ( 'NONE',  ( 1.000000000000000000, 0.000000000000000000, 0.000000000000000000 ) ) ;
#277 = DIRECTION ( 'NONE',  ( -1.000000000000000000, 0.000000000000000000, 0.000000000000000000 ) ) ;
#278 = DIRECTION ( 'NONE',  ( 1.000000000000000000, 0.000000000000000000, 0.000000000000000000 ) ) ;
#279 = TOROIDAL_SURFACE ( 'NONE', #128, 1.950000000000000178, 0.2000000000000000111 ) ;
#280 =( GEOMETRIC_REPRESENTATION_CONTEXT ( 3 ) GLOBAL_UNCERTAINTY_ASSIGNED_CONTEXT ( ( #244 ) ) GLOBAL_UNIT_ASSIGNED_CONTEXT ( ( #298, #110, #186 ) ) REPRESENTATION_CONTEXT ( 'NONE', 'WORKASPACE' ) );
#281 = CARTESIAN_POINT ( 'NONE',  ( 0.000000000000000000, 0.000000000000000000, 3.000000000000000000 ) ) ;
#282 = CALENDAR_DATE ( 2022, 7, 7 ) ;
#283 = EDGE_CURVE ( 'NONE', #222, #160, #17, .T. ) ;
#284 = AXIS2_PLACEMENT_3D ( 'NONE', #34, #145, #247 ) ;
#285 = CIRCLE ( 'NONE', #240, 3.500000000000000444 ) ;
#286 = COORDINATED_UNIVERSAL_TIME_OFFSET ( 1, 0, .AHEAD. ) ;
#287 = ORIENTED_EDGE ( 'NONE', *, *, #5, .F. ) ;
#288 = EDGE_CURVE ( 'NONE', #222, #246, #35, .T. ) ;
#289 = DATE_AND_TIME ( #117, #14 ) ;
#290 = ORIENTED_EDGE ( 'NONE', *, *, #140, .T. ) ;
#291 = EDGE_LOOP ( 'NONE', ( #120, #74, #194, #31 ) ) ;
#292 = DIRECTION ( 'NONE',  ( 1.000000000000000000, 0.000000000000000000, 0.000000000000000000 ) ) ;
#293 = CARTESIAN_POINT ( 'NONE',  ( -1.950000000000000178, 2.388061258337339136E-16, 3.199999999999994404 ) ) ;
#294 = DIRECTION ( 'NONE',  ( -1.000000000000000000, 1.224646799147354686E-16, 0.000000000000000000 ) ) ;
#295 = CARTESIAN_POINT ( 'NONE',  ( 0.000000000000000000, 0.000000000000000000, 0.000000000000000000 ) ) ;
#296 = EDGE_CURVE ( 'NONE', #113, #158, #65, .T. ) ;
#297 = CARTESIAN_POINT ( 'NONE',  ( 0.000000000000000000, 0.000000000000000000, 103.0000000000000142 ) ) ;
#298 =( LENGTH_UNIT ( ) NAMED_UNIT ( * ) SI_UNIT ( .MILLI., .METRE. ) );
#299 = CARTESIAN_POINT ( 'NONE',  ( 0.000000000000000000, 0.000000000000000000, 103.0000000000000142 ) ) ;
#300 = CARTESIAN_POINT ( 'NONE',  ( -1.750000000000000000, 0.000000000000000000, 103.0000000000000142 ) ) ;
#301 = APPROVAL ( #22, 'NEURÈENÝ' ) ;
#302 = FACE_OUTER_BOUND ( 'NONE', #149, .T. ) ;
#303 = AXIS2_PLACEMENT_3D ( 'NONE', #293, #214, #294 ) ;
#304 = LOCAL_TIME ( 12, 28, 43.00000000000000000, #51 ) ;
#305 = DIRECTION ( 'NONE',  ( 1.000000000000000000, 0.000000000000000000, 0.000000000000000000 ) ) ;
#306 = MECHANICAL_CONTEXT ( 'NONE', #146, 'mechanical' ) ;
#307 = APPROVAL ( #166, 'NEURÈENÝ' ) ;
ENDSEC;
END-ISO-10303-21;
