ISO-10303-21;
HEADER;
FILE_DESCRIPTION (( 'STEP AP203' ),
    '1' );
FILE_NAME ('c32a.STEP',
    '2023-02-12T10:28:03',
    ( '' ),
    ( '' ),
    'SwSTEP 2.0',
    'SolidWorks 2019',
    '' );
FILE_SCHEMA (( 'CONFIG_CONTROL_DESIGN' ));
ENDSEC;

DATA;
#1 = CC_DESIGN_PERSON_AND_ORGANIZATION_ASSIGNMENT ( #234, #57, ( #3 ) ) ;
#2 = DIRECTION ( 'NONE',  ( -0.000000000000000000, -0.000000000000000000, -1.000000000000000000 ) ) ;
#3 = SECURITY_CLASSIFICATION ( '', '', #173 ) ;
#4 = DIRECTION ( 'NONE',  ( 0.000000000000000000, 0.000000000000000000, 1.000000000000000000 ) ) ;
#5 = CC_DESIGN_PERSON_AND_ORGANIZATION_ASSIGNMENT ( #80, #159, ( #222 ) ) ;
#6 = CARTESIAN_POINT ( 'NONE',  ( 0.000000000000000000, 0.000000000000000000, 10.00000000000000000 ) ) ;
#7 = ORIENTED_EDGE ( 'NONE', *, *, #76, .T. ) ;
#8 = EDGE_CURVE ( 'NONE', #131, #48, #88, .T. ) ;
#9 = DIRECTION ( 'NONE',  ( -0.000000000000000000, -0.000000000000000000, -1.000000000000000000 ) ) ;
#10 = EDGE_LOOP ( 'NONE', ( #139, #228 ) ) ;
#11 = PLANE ( 'NONE',  #23 ) ;
#12 = DATE_TIME_ROLE ( 'classification_date' ) ;
#13 = AXIS2_PLACEMENT_3D ( 'NONE', #111, #250, #171 ) ;
#14 = PRODUCT_DEFINITION_FORMATION_WITH_SPECIFIED_SOURCE ( 'LIBOVOLNÝ', '', #208, .NOT_KNOWN. ) ;
#15 = PERSON_AND_ORGANIZATION ( #37, #199 ) ;
#16 = EDGE_LOOP ( 'NONE', ( #55, #122 ) ) ;
#17 = PLANE ( 'NONE',  #128 ) ;
#18 = AXIS2_PLACEMENT_3D ( 'NONE', #213, #2, #163 ) ;
#19 = APPROVAL_PERSON_ORGANIZATION ( #98, #106, #241 ) ;
#20 = EDGE_LOOP ( 'NONE', ( #154, #58, #89, #61 ) ) ;
#21 = CARTESIAN_POINT ( 'NONE',  ( 16.00000000000000000, 1.959434878635765131E-15, 0.000000000000000000 ) ) ;
#22 = VECTOR ( 'NONE', #174, 1000.000000000000000 ) ;
#23 = AXIS2_PLACEMENT_3D ( 'NONE', #94, #249, #130 ) ;
#24 = APPROVAL ( #138, 'NEURÈENÝ' ) ;
#25 = DIRECTION ( 'NONE',  ( 0.000000000000000000, 0.000000000000000000, 1.000000000000000000 ) ) ;
#26 = ORIENTED_EDGE ( 'NONE', *, *, #246, .F. ) ;
#27 = CC_DESIGN_DATE_AND_TIME_ASSIGNMENT ( #238, #103, ( #222 ) ) ;
#28 = CARTESIAN_POINT ( 'NONE',  ( 0.000000000000000000, 0.000000000000000000, 10.00000000000000000 ) ) ;
#29 = CARTESIAN_POINT ( 'NONE',  ( 0.000000000000000000, 0.000000000000000000, 10.00000000000000000 ) ) ;
#30 = EDGE_LOOP ( 'NONE', ( #26, #156, #113, #151 ) ) ;
#31 = CARTESIAN_POINT ( 'NONE',  ( -16.00000000000000000, 0.000000000000000000, 10.00000000000000000 ) ) ;
#32 = DIRECTION ( 'NONE',  ( -0.000000000000000000, -0.000000000000000000, -1.000000000000000000 ) ) ;
#33 = CC_DESIGN_PERSON_AND_ORGANIZATION_ASSIGNMENT ( #74, #155, ( #14 ) ) ;
#34 = VERTEX_POINT ( 'NONE', #177 ) ;
#35 = APPLICATION_PROTOCOL_DEFINITION ( 'international standard', 'config_control_design', 1994, #229 ) ;
#36 = DIRECTION ( 'NONE',  ( 1.000000000000000000, 0.000000000000000000, 0.000000000000000000 ) ) ;
#37 = PERSON ( 'NEURÈENÝ', 'NEURÈENÝ', 'NEURÈENÝ', ('NEURÈENÝ'), ('NEURÈENÝ'), ('NEURÈENÝ') ) ;
#38 = EDGE_CURVE ( 'NONE', #233, #48, #92, .T. ) ;
#39 = DIRECTION ( 'NONE',  ( 0.000000000000000000, 0.000000000000000000, 1.000000000000000000 ) ) ;
#40 = APPROVAL_STATUS ( 'not_yet_approved' ) ;
#41 = CARTESIAN_POINT ( 'NONE',  ( 0.000000000000000000, 0.000000000000000000, 10.00000000000000000 ) ) ;
#42 = CIRCLE ( 'NONE', #244, 12.50000000000000000 ) ;
#43 = DIRECTION ( 'NONE',  ( -1.000000000000000000, 0.000000000000000000, 0.000000000000000000 ) ) ;
#44 = AXIS2_PLACEMENT_3D ( 'NONE', #29, #153, #232 ) ;
#45 = VECTOR ( 'NONE', #9, 1000.000000000000000 ) ;
#46 = CARTESIAN_POINT ( 'NONE',  ( 0.000000000000000000, 0.000000000000000000, 800.0000000000000000 ) ) ;
#47 = DIRECTION ( 'NONE',  ( 1.000000000000000000, 0.000000000000000000, 0.000000000000000000 ) ) ;
#48 = VERTEX_POINT ( 'NONE', #79 ) ;
#49 = DIRECTION ( 'NONE',  ( 0.000000000000000000, 0.000000000000000000, 1.000000000000000000 ) ) ;
#50 = EDGE_LOOP ( 'NONE', ( #236, #207 ) ) ;
#51 = DIRECTION ( 'NONE',  ( -1.000000000000000000, 0.000000000000000000, 0.000000000000000000 ) ) ;
#52 = ADVANCED_BREP_SHAPE_REPRESENTATION ( 'c32a', ( #142, #82 ), #205 ) ;
#53 = ADVANCED_FACE ( 'NONE', ( #198 ), #17, .T. ) ;
#54 = CARTESIAN_POINT ( 'NONE',  ( 16.00000000000000000, 1.959434878635765131E-15, 10.00000000000000000 ) ) ;
#55 = ORIENTED_EDGE ( 'NONE', *, *, #226, .F. ) ;
#56 = AXIS2_PLACEMENT_3D ( 'NONE', #225, #67, #43 ) ;
#57 = PERSON_AND_ORGANIZATION_ROLE ( 'classification_officer' ) ;
#58 = ORIENTED_EDGE ( 'NONE', *, *, #246, .T. ) ;
#59 = CC_DESIGN_APPROVAL ( #24, ( #222 ) ) ;
#60 = EDGE_CURVE ( 'NONE', #161, #78, #64, .T. ) ;
#61 = ORIENTED_EDGE ( 'NONE', *, *, #8, .F. ) ;
#62 = COORDINATED_UNIVERSAL_TIME_OFFSET ( 1, 0, .AHEAD. ) ;
#63 = DATE_AND_TIME ( #178, #119 ) ;
#64 = CIRCLE ( 'NONE', #220, 16.00000000000000000 ) ;
#65 = DATE_AND_TIME ( #248, #185 ) ;
#66 = DIRECTION ( 'NONE',  ( 1.000000000000000000, 0.000000000000000000, 0.000000000000000000 ) ) ;
#67 = DIRECTION ( 'NONE',  ( -0.000000000000000000, -0.000000000000000000, -1.000000000000000000 ) ) ;
#68 = CYLINDRICAL_SURFACE ( 'NONE', #56, 16.00000000000000000 ) ;
#69 = LOCAL_TIME ( 11, 28, 3.000000000000000000, #62 ) ;
#70 = ORIENTED_EDGE ( 'NONE', *, *, #235, .F. ) ;
#71 = LINE ( 'NONE', #188, #45 ) ;
#72 = ORIENTED_EDGE ( 'NONE', *, *, #243, .F. ) ;
#73 = CARTESIAN_POINT ( 'NONE',  ( 12.50000000000000000, 1.530808498934191127E-15, 800.0000000000000000 ) ) ;
#74 = PERSON_AND_ORGANIZATION ( #37, #199 ) ;
#75 = CYLINDRICAL_SURFACE ( 'NONE', #18, 12.50000000000000000 ) ;
#76 = EDGE_CURVE ( 'NONE', #231, #100, #242, .T. ) ;
#77 = CC_DESIGN_APPROVAL ( #218, ( #3 ) ) ;
#78 = VERTEX_POINT ( 'NONE', #147 ) ;
#79 = CARTESIAN_POINT ( 'NONE',  ( -12.50000000000000000, 0.000000000000000000, 10.00000000000000000 ) ) ;
#80 = PERSON_AND_ORGANIZATION ( #37, #199 ) ;
#81 = CIRCLE ( 'NONE', #223, 12.50000000000000000 ) ;
#82 = AXIS2_PLACEMENT_3D ( 'NONE', #97, #39, #36 ) ;
#83 = ADVANCED_FACE ( 'NONE', ( #124 ), #68, .T. ) ;
#84 = APPROVAL_PERSON_ORGANIZATION ( #224, #218, #149 ) ;
#85 = EDGE_CURVE ( 'NONE', #100, #231, #146, .T. ) ;
#86 = APPROVAL_PERSON_ORGANIZATION ( #15, #24, #116 ) ;
#87 = DIRECTION ( 'NONE',  ( -1.000000000000000000, 0.000000000000000000, 0.000000000000000000 ) ) ;
#88 = LINE ( 'NONE', #215, #22 ) ;
#89 = ORIENTED_EDGE ( 'NONE', *, *, #38, .T. ) ;
#90 = FACE_OUTER_BOUND ( 'NONE', #179, .T. ) ;
#91 = EDGE_LOOP ( 'NONE', ( #200, #136, #204, #7 ) ) ;
#92 = CIRCLE ( 'NONE', #157, 12.50000000000000000 ) ;
#93 = DIRECTION ( 'NONE',  ( -0.000000000000000000, -0.000000000000000000, -1.000000000000000000 ) ) ;
#94 = CARTESIAN_POINT ( 'NONE',  ( 0.000000000000000000, 0.000000000000000000, 0.000000000000000000 ) ) ;
#95 = PERSON_AND_ORGANIZATION_ROLE ( 'creator' ) ;
#96 = AXIS2_PLACEMENT_3D ( 'NONE', #183, #4, #126 ) ;
#97 = CARTESIAN_POINT ( 'NONE',  ( 0.000000000000000000, 0.000000000000000000, 0.000000000000000000 ) ) ;
#98 = PERSON_AND_ORGANIZATION ( #37, #199 ) ;
#99 = DIRECTION ( 'NONE',  ( 1.000000000000000000, 0.000000000000000000, 0.000000000000000000 ) ) ;
#100 = VERTEX_POINT ( 'NONE', #21 ) ;
#101 = PERSON_AND_ORGANIZATION_ROLE ( 'design_owner' ) ;
#102 = EDGE_CURVE ( 'NONE', #131, #34, #247, .T. ) ;
#103 = DATE_TIME_ROLE ( 'creation_date' ) ;
#104 = DIRECTION ( 'NONE',  ( 0.000000000000000000, 0.000000000000000000, 1.000000000000000000 ) ) ;
#105 = ORIENTED_EDGE ( 'NONE', *, *, #165, .T. ) ;
#106 = APPROVAL ( #40, 'NEURÈENÝ' ) ;
#107 = CARTESIAN_POINT ( 'NONE',  ( -12.50000000000000000, 0.000000000000000000, 800.0000000000000000 ) ) ;
#108 = AXIS2_PLACEMENT_3D ( 'NONE', #6, #32, #87 ) ;
#109 = CC_DESIGN_PERSON_AND_ORGANIZATION_ASSIGNMENT ( #254, #95, ( #14 ) ) ;
#110 = CARTESIAN_POINT ( 'NONE',  ( -16.00000000000000000, 0.000000000000000000, 0.000000000000000000 ) ) ;
#111 = CARTESIAN_POINT ( 'NONE',  ( 0.000000000000000000, 0.000000000000000000, 10.00000000000000000 ) ) ;
#112 = CARTESIAN_POINT ( 'NONE',  ( 0.000000000000000000, 0.000000000000000000, 800.0000000000000000 ) ) ;
#113 = ORIENTED_EDGE ( 'NONE', *, *, #8, .T. ) ;
#114 = LOCAL_TIME ( 11, 28, 3.000000000000000000, #134 ) ;
#115 = CALENDAR_DATE ( 2023, 12, 2 ) ;
#116 = APPROVAL_ROLE ( '' ) ;
#117 = CALENDAR_DATE ( 2023, 12, 2 ) ;
#118 = DIRECTION ( 'NONE',  ( 1.000000000000000000, 0.000000000000000000, -0.000000000000000000 ) ) ;
#119 = LOCAL_TIME ( 11, 28, 3.000000000000000000, #214 ) ;
#120 = APPROVAL_DATE_TIME ( #63, #106 ) ;
#121 = PRODUCT_RELATED_PRODUCT_CATEGORY ( 'detail', '', ( #208 ) ) ;
#122 = ORIENTED_EDGE ( 'NONE', *, *, #38, .F. ) ;
#123 = DIRECTION ( 'NONE',  ( 0.000000000000000000, 0.000000000000000000, 1.000000000000000000 ) ) ;
#124 = FACE_OUTER_BOUND ( 'NONE', #91, .T. ) ;
#125 = ADVANCED_FACE ( 'NONE', ( #227, #230 ), #150, .T. ) ;
#126 = DIRECTION ( 'NONE',  ( 1.000000000000000000, 0.000000000000000000, 0.000000000000000000 ) ) ;
#127 = DIRECTION ( 'NONE',  ( 0.000000000000000000, 0.000000000000000000, 1.000000000000000000 ) ) ;
#128 = AXIS2_PLACEMENT_3D ( 'NONE', #239, #104, #118 ) ;
#129 = CC_DESIGN_SECURITY_CLASSIFICATION ( #3, ( #14 ) ) ;
#130 = DIRECTION ( 'NONE',  ( 1.000000000000000000, 0.000000000000000000, -0.000000000000000000 ) ) ;
#131 = VERTEX_POINT ( 'NONE', #107 ) ;
#132 = UNCERTAINTY_MEASURE_WITH_UNIT (LENGTH_MEASURE( 1.000000000000000082E-05 ), #175, 'distance_accuracy_value', 'NONE');
#133 = EDGE_LOOP ( 'NONE', ( #196, #216 ) ) ;
#134 = COORDINATED_UNIVERSAL_TIME_OFFSET ( 1, 0, .AHEAD. ) ;
#135 = CC_DESIGN_PERSON_AND_ORGANIZATION_ASSIGNMENT ( #160, #101, ( #208 ) ) ;
#136 = ORIENTED_EDGE ( 'NONE', *, *, #60, .F. ) ;
#137 = PRODUCT_DEFINITION_SHAPE ( 'NONE', 'NONE',  #222 ) ;
#138 = APPROVAL_STATUS ( 'not_yet_approved' ) ;
#139 = ORIENTED_EDGE ( 'NONE', *, *, #102, .T. ) ;
#140 = CLOSED_SHELL ( 'NONE', ( #182, #184, #83, #125, #193, #251, #53 ) ) ;
#141 = DATE_AND_TIME ( #117, #202 ) ;
#142 = MANIFOLD_SOLID_BREP ( 'Pøidat vysunutím3', #140 ) ;
#143 = DIRECTION ( 'NONE',  ( 1.000000000000000000, 0.000000000000000000, 0.000000000000000000 ) ) ;
#144 = APPROVAL_DATE_TIME ( #65, #218 ) ;
#145 = SHAPE_DEFINITION_REPRESENTATION ( #137, #52 ) ;
#146 = CIRCLE ( 'NONE', #96, 16.00000000000000000 ) ;
#147 = CARTESIAN_POINT ( 'NONE',  ( 16.00000000000000000, 1.959434878635765131E-15, 10.00000000000000000 ) ) ;
#148 = AXIS2_PLACEMENT_3D ( 'NONE', #112, #191, #51 ) ;
#149 = APPROVAL_ROLE ( '' ) ;
#150 = PLANE ( 'NONE',  #44 ) ;
#151 = ORIENTED_EDGE ( 'NONE', *, *, #226, .T. ) ;
#152 = DIRECTION ( 'NONE',  ( 1.000000000000000000, 0.000000000000000000, 0.000000000000000000 ) ) ;
#153 = DIRECTION ( 'NONE',  ( 0.000000000000000000, 0.000000000000000000, 1.000000000000000000 ) ) ;
#154 = ORIENTED_EDGE ( 'NONE', *, *, #172, .F. ) ;
#155 = PERSON_AND_ORGANIZATION_ROLE ( 'design_supplier' ) ;
#156 = ORIENTED_EDGE ( 'NONE', *, *, #102, .F. ) ;
#157 = AXIS2_PLACEMENT_3D ( 'NONE', #41, #123, #143 ) ;
#158 = FACE_OUTER_BOUND ( 'NONE', #30, .T. ) ;
#159 = PERSON_AND_ORGANIZATION_ROLE ( 'creator' ) ;
#160 = PERSON_AND_ORGANIZATION ( #37, #199 ) ;
#161 = VERTEX_POINT ( 'NONE', #31 ) ;
#162 = AXIS2_PLACEMENT_3D ( 'NONE', #166, #25, #66 ) ;
#163 = DIRECTION ( 'NONE',  ( -1.000000000000000000, 0.000000000000000000, 0.000000000000000000 ) ) ;
#164 = CARTESIAN_POINT ( 'NONE',  ( 0.000000000000000000, 0.000000000000000000, 800.0000000000000000 ) ) ;
#165 = EDGE_CURVE ( 'NONE', #78, #100, #209, .T. ) ;
#166 = CARTESIAN_POINT ( 'NONE',  ( 0.000000000000000000, 0.000000000000000000, 0.000000000000000000 ) ) ;
#167 = CC_DESIGN_APPROVAL ( #106, ( #14 ) ) ;
#168 = DIRECTION ( 'NONE',  ( 0.000000000000000000, 0.000000000000000000, 1.000000000000000000 ) ) ;
#169 = CARTESIAN_POINT ( 'NONE',  ( 12.50000000000000000, 1.530808498934191127E-15, 10.00000000000000000 ) ) ;
#170 = CYLINDRICAL_SURFACE ( 'NONE', #108, 16.00000000000000000 ) ;
#171 = DIRECTION ( 'NONE',  ( 1.000000000000000000, 0.000000000000000000, 0.000000000000000000 ) ) ;
#172 = EDGE_CURVE ( 'NONE', #34, #131, #81, .T. ) ;
#173 = SECURITY_CLASSIFICATION_LEVEL ( 'unclassified' ) ;
#174 = DIRECTION ( 'NONE',  ( -0.000000000000000000, -0.000000000000000000, -1.000000000000000000 ) ) ;
#175 =( LENGTH_UNIT ( ) NAMED_UNIT ( * ) SI_UNIT ( .MILLI., .METRE. ) );
#176 = CC_DESIGN_DATE_AND_TIME_ASSIGNMENT ( #192, #12, ( #3 ) ) ;
#177 = CARTESIAN_POINT ( 'NONE',  ( 12.50000000000000000, 1.530808498934191127E-15, 800.0000000000000000 ) ) ;
#178 = CALENDAR_DATE ( 2023, 12, 2 ) ;
#179 = EDGE_LOOP ( 'NONE', ( #70, #105, #240, #72 ) ) ;
#180 = APPLICATION_PROTOCOL_DEFINITION ( 'international standard', 'config_control_design', 1994, #197 ) ;
#181 = CARTESIAN_POINT ( 'NONE',  ( 0.000000000000000000, 0.000000000000000000, 10.00000000000000000 ) ) ;
#182 = ADVANCED_FACE ( 'NONE', ( #186 ), #252, .T. ) ;
#183 = CARTESIAN_POINT ( 'NONE',  ( 0.000000000000000000, 0.000000000000000000, 0.000000000000000000 ) ) ;
#184 = ADVANCED_FACE ( 'NONE', ( #90 ), #170, .T. ) ;
#185 = LOCAL_TIME ( 11, 28, 3.000000000000000000, #221 ) ;
#186 = FACE_OUTER_BOUND ( 'NONE', #20, .T. ) ;
#187 = DIRECTION ( 'NONE',  ( 1.000000000000000000, 0.000000000000000000, 0.000000000000000000 ) ) ;
#188 = CARTESIAN_POINT ( 'NONE',  ( -16.00000000000000000, 0.000000000000000000, 10.00000000000000000 ) ) ;
#189 = LINE ( 'NONE', #73, #211 ) ;
#190 = VECTOR ( 'NONE', #210, 1000.000000000000000 ) ;
#191 = DIRECTION ( 'NONE',  ( -0.000000000000000000, -0.000000000000000000, -1.000000000000000000 ) ) ;
#192 = DATE_AND_TIME ( #115, #114 ) ;
#193 = ADVANCED_FACE ( 'NONE', ( #206 ), #11, .F. ) ;
#194 = DIRECTION ( 'NONE',  ( 0.000000000000000000, 0.000000000000000000, 1.000000000000000000 ) ) ;
#195 =( NAMED_UNIT ( * ) SI_UNIT ( $, .STERADIAN. ) SOLID_ANGLE_UNIT ( ) );
#196 = ORIENTED_EDGE ( 'NONE', *, *, #76, .F. ) ;
#197 = APPLICATION_CONTEXT ( 'configuration controlled 3d designs of mechanical parts and assemblies' ) ;
#198 = FACE_OUTER_BOUND ( 'NONE', #10, .T. ) ;
#199 = ORGANIZATION ( 'NEURÈENÝ', 'NEURÈENÝ', '' ) ;
#200 = ORIENTED_EDGE ( 'NONE', *, *, #165, .F. ) ;
#201 = AXIS2_PLACEMENT_3D ( 'NONE', #164, #49, #152 ) ;
#202 = LOCAL_TIME ( 11, 28, 3.000000000000000000, #237 ) ;
#203 = APPROVAL_STATUS ( 'not_yet_approved' ) ;
#204 = ORIENTED_EDGE ( 'NONE', *, *, #243, .T. ) ;
#205 =( GEOMETRIC_REPRESENTATION_CONTEXT ( 3 ) GLOBAL_UNCERTAINTY_ASSIGNED_CONTEXT ( ( #132 ) ) GLOBAL_UNIT_ASSIGNED_CONTEXT ( ( #175, #255, #195 ) ) REPRESENTATION_CONTEXT ( 'NONE', 'WORKASPACE' ) );
#206 = FACE_OUTER_BOUND ( 'NONE', #133, .T. ) ;
#207 = ORIENTED_EDGE ( 'NONE', *, *, #235, .T. ) ;
#208 = PRODUCT ( 'c32a', 'c32a', '', ( #212 ) ) ;
#209 = LINE ( 'NONE', #54, #190 ) ;
#210 = DIRECTION ( 'NONE',  ( -0.000000000000000000, -0.000000000000000000, -1.000000000000000000 ) ) ;
#211 = VECTOR ( 'NONE', #93, 1000.000000000000000 ) ;
#212 = MECHANICAL_CONTEXT ( 'NONE', #197, 'mechanical' ) ;
#213 = CARTESIAN_POINT ( 'NONE',  ( 0.000000000000000000, 0.000000000000000000, 800.0000000000000000 ) ) ;
#214 = COORDINATED_UNIVERSAL_TIME_OFFSET ( 1, 0, .AHEAD. ) ;
#215 = CARTESIAN_POINT ( 'NONE',  ( -12.50000000000000000, 0.000000000000000000, 800.0000000000000000 ) ) ;
#216 = ORIENTED_EDGE ( 'NONE', *, *, #85, .F. ) ;
#217 = CALENDAR_DATE ( 2023, 12, 2 ) ;
#218 = APPROVAL ( #203, 'NEURÈENÝ' ) ;
#219 = DESIGN_CONTEXT ( 'detailed design', #229, 'design' ) ;
#220 = AXIS2_PLACEMENT_3D ( 'NONE', #181, #194, #99 ) ;
#221 = COORDINATED_UNIVERSAL_TIME_OFFSET ( 1, 0, .AHEAD. ) ;
#222 = PRODUCT_DEFINITION ( 'NEZNÁMÝ', '', #14, #219 ) ;
#223 = AXIS2_PLACEMENT_3D ( 'NONE', #46, #168, #47 ) ;
#224 = PERSON_AND_ORGANIZATION ( #37, #199 ) ;
#225 = CARTESIAN_POINT ( 'NONE',  ( 0.000000000000000000, 0.000000000000000000, 10.00000000000000000 ) ) ;
#226 = EDGE_CURVE ( 'NONE', #48, #233, #42, .T. ) ;
#227 = FACE_BOUND ( 'NONE', #16, .T. ) ;
#228 = ORIENTED_EDGE ( 'NONE', *, *, #172, .T. ) ;
#229 = APPLICATION_CONTEXT ( 'configuration controlled 3d designs of mechanical parts and assemblies' ) ;
#230 = FACE_OUTER_BOUND ( 'NONE', #50, .T. ) ;
#231 = VERTEX_POINT ( 'NONE', #110 ) ;
#232 = DIRECTION ( 'NONE',  ( 1.000000000000000000, 0.000000000000000000, -0.000000000000000000 ) ) ;
#233 = VERTEX_POINT ( 'NONE', #169 ) ;
#234 = PERSON_AND_ORGANIZATION ( #37, #199 ) ;
#235 = EDGE_CURVE ( 'NONE', #78, #161, #253, .T. ) ;
#236 = ORIENTED_EDGE ( 'NONE', *, *, #60, .T. ) ;
#237 = COORDINATED_UNIVERSAL_TIME_OFFSET ( 1, 0, .AHEAD. ) ;
#238 = DATE_AND_TIME ( #217, #69 ) ;
#239 = CARTESIAN_POINT ( 'NONE',  ( 0.000000000000000000, 0.000000000000000000, 800.0000000000000000 ) ) ;
#240 = ORIENTED_EDGE ( 'NONE', *, *, #85, .T. ) ;
#241 = APPROVAL_ROLE ( '' ) ;
#242 = CIRCLE ( 'NONE', #162, 16.00000000000000000 ) ;
#243 = EDGE_CURVE ( 'NONE', #161, #231, #71, .T. ) ;
#244 = AXIS2_PLACEMENT_3D ( 'NONE', #28, #127, #187 ) ;
#245 = APPROVAL_DATE_TIME ( #141, #24 ) ;
#246 = EDGE_CURVE ( 'NONE', #34, #233, #189, .T. ) ;
#247 = CIRCLE ( 'NONE', #201, 12.50000000000000000 ) ;
#248 = CALENDAR_DATE ( 2023, 12, 2 ) ;
#249 = DIRECTION ( 'NONE',  ( 0.000000000000000000, 0.000000000000000000, 1.000000000000000000 ) ) ;
#250 = DIRECTION ( 'NONE',  ( 0.000000000000000000, 0.000000000000000000, 1.000000000000000000 ) ) ;
#251 = ADVANCED_FACE ( 'NONE', ( #158 ), #75, .T. ) ;
#252 = CYLINDRICAL_SURFACE ( 'NONE', #148, 12.50000000000000000 ) ;
#253 = CIRCLE ( 'NONE', #13, 16.00000000000000000 ) ;
#254 = PERSON_AND_ORGANIZATION ( #37, #199 ) ;
#255 =( NAMED_UNIT ( * ) PLANE_ANGLE_UNIT ( ) SI_UNIT ( $, .RADIAN. ) );
ENDSEC;
END-ISO-10303-21;
