ISO-10303-21;
HEADER;
FILE_DESCRIPTION (( 'STEP AP203' ),
    '1' );
FILE_NAME ('2b70.STEP',
    '2022-07-07T10:34:22',
    ( '' ),
    ( '' ),
    'SwSTEP 2.0',
    'SolidWorks 2019',
    '' );
FILE_SCHEMA (( 'CONFIG_CONTROL_DESIGN' ));
ENDSEC;

DATA;
#1 = CARTESIAN_POINT ( 'NONE',  ( -2.000000000000000000, 0.000000000000000000, 0.000000000000000000 ) ) ;
#2 = CC_DESIGN_SECURITY_CLASSIFICATION ( #53, ( #153 ) ) ;
#3 = CIRCLE ( 'NONE', #213, 2.000000000000000000 ) ;
#4 = FACE_OUTER_BOUND ( 'NONE', #229, .T. ) ;
#5 = FACE_OUTER_BOUND ( 'NONE', #142, .T. ) ;
#6 = ADVANCED_FACE ( 'NONE', ( #259 ), #88, .F. ) ;
#7 = DIRECTION ( 'NONE',  ( 0.000000000000000000, 0.000000000000000000, 1.000000000000000000 ) ) ;
#8 = CARTESIAN_POINT ( 'NONE',  ( 0.000000000000000000, 0.000000000000000000, 0.000000000000000000 ) ) ;
#9 = CALENDAR_DATE ( 2022, 7, 7 ) ;
#10 = ORIENTED_EDGE ( 'NONE', *, *, #26, .T. ) ;
#11 = APPLICATION_PROTOCOL_DEFINITION ( 'international standard', 'config_control_design', 1994, #155 ) ;
#12 = EDGE_LOOP ( 'NONE', ( #251, #180, #223, #285 ) ) ;
#13 = APPROVAL_STATUS ( 'not_yet_approved' ) ;
#14 = VERTEX_POINT ( 'NONE', #65 ) ;
#15 = CC_DESIGN_PERSON_AND_ORGANIZATION_ASSIGNMENT ( #175, #179, ( #282 ) ) ;
#16 = LOCAL_TIME ( 12, 34, 22.00000000000000000, #248 ) ;
#17 = DIRECTION ( 'NONE',  ( 1.000000000000000000, 0.000000000000000000, 0.000000000000000000 ) ) ;
#18 = AXIS2_PLACEMENT_3D ( 'NONE', #94, #93, #191 ) ;
#19 = CARTESIAN_POINT ( 'NONE',  ( 0.000000000000000000, 0.000000000000000000, 0.000000000000000000 ) ) ;
#20 = DIRECTION ( 'NONE',  ( 0.000000000000000000, 0.000000000000000000, 1.000000000000000000 ) ) ;
#21 = CARTESIAN_POINT ( 'NONE',  ( 0.000000000000000000, 0.000000000000000000, 2.000000000000000000 ) ) ;
#22 = CARTESIAN_POINT ( 'NONE',  ( 0.000000000000000000, 0.000000000000000000, 162.0000000000000000 ) ) ;
#23 = CARTESIAN_POINT ( 'NONE',  ( 0.000000000000000000, 0.000000000000000000, 2.200000000000007283 ) ) ;
#24 = ORGANIZATION ( 'NEURÈENÝ', 'NEURÈENÝ', '' ) ;
#25 = CARTESIAN_POINT ( 'NONE',  ( -1.300000000000000266, 1.592040838891559342E-16, 2.000000000000003553 ) ) ;
#26 = EDGE_CURVE ( 'NONE', #107, #246, #178, .T. ) ;
#27 = DIRECTION ( 'NONE',  ( -0.000000000000000000, -0.000000000000000000, -1.000000000000000000 ) ) ;
#28 = PLANE ( 'NONE',  #161 ) ;
#29 = EDGE_CURVE ( 'NONE', #246, #107, #38, .T. ) ;
#30 = DIRECTION ( 'NONE',  ( 0.000000000000000000, 0.000000000000000000, 1.000000000000000000 ) ) ;
#31 = LOCAL_TIME ( 12, 34, 22.00000000000000000, #302 ) ;
#32 = ORIENTED_EDGE ( 'NONE', *, *, #78, .T. ) ;
#33 = APPROVAL_ROLE ( '' ) ;
#34 = ORIENTED_EDGE ( 'NONE', *, *, #150, .T. ) ;
#35 = DATE_AND_TIME ( #226, #90 ) ;
#36 = CALENDAR_DATE ( 2022, 7, 7 ) ;
#37 = EDGE_CURVE ( 'NONE', #104, #273, #293, .T. ) ;
#38 = CIRCLE ( 'NONE', #204, 2.000000000000000000 ) ;
#39 = APPROVAL_STATUS ( 'not_yet_approved' ) ;
#40 = VERTEX_POINT ( 'NONE', #187 ) ;
#41 = LINE ( 'NONE', #227, #184 ) ;
#42 = CIRCLE ( 'NONE', #92, 1.100000000000000089 ) ;
#43 = AXIS2_PLACEMENT_3D ( 'NONE', #21, #304, #115 ) ;
#44 = DIRECTION ( 'NONE',  ( 0.000000000000000000, -1.000000000000000000, 0.000000000000000000 ) ) ;
#45 = VERTEX_POINT ( 'NONE', #306 ) ;
#46 = CARTESIAN_POINT ( 'NONE',  ( 0.000000000000000000, 0.000000000000000000, 2.000000000000000000 ) ) ;
#47 = EDGE_CURVE ( 'NONE', #246, #257, #41, .T. ) ;
#48 = CARTESIAN_POINT ( 'NONE',  ( 0.000000000000000000, 0.000000000000000000, 2.000000000000000000 ) ) ;
#49 = AXIS2_PLACEMENT_3D ( 'NONE', #109, #143, #138 ) ;
#50 = CARTESIAN_POINT ( 'NONE',  ( -2.000000000000000000, 0.000000000000000000, 2.000000000000000000 ) ) ;
#51 = DIRECTION ( 'NONE',  ( 0.000000000000000000, 0.000000000000000000, 1.000000000000000000 ) ) ;
#52 = DIRECTION ( 'NONE',  ( 1.224646799147353207E-16, 1.000000000000000000, -0.000000000000000000 ) ) ;
#53 = SECURITY_CLASSIFICATION ( '', '', #177 ) ;
#54 = PERSON_AND_ORGANIZATION ( #83, #24 ) ;
#55 = PERSON_AND_ORGANIZATION_ROLE ( 'classification_officer' ) ;
#56 = CARTESIAN_POINT ( 'NONE',  ( 0.000000000000000000, 0.000000000000000000, 0.000000000000000000 ) ) ;
#57 = EDGE_CURVE ( 'NONE', #273, #104, #214, .T. ) ;
#58 =( NAMED_UNIT ( * ) SI_UNIT ( $, .STERADIAN. ) SOLID_ANGLE_UNIT ( ) );
#59 = EDGE_LOOP ( 'NONE', ( #278, #209 ) ) ;
#60 = CC_DESIGN_APPROVAL ( #208, ( #153 ) ) ;
#61 = ORIENTED_EDGE ( 'NONE', *, *, #101, .T. ) ;
#62 = CARTESIAN_POINT ( 'NONE',  ( 2.000000000000000000, 2.449293598294706414E-16, 2.000000000000000000 ) ) ;
#63 = CARTESIAN_POINT ( 'NONE',  ( 0.000000000000000000, 0.000000000000000000, 162.0000000000000000 ) ) ;
#64 = APPROVAL ( #39, 'NEURÈENÝ' ) ;
#65 = CARTESIAN_POINT ( 'NONE',  ( 2.000000000000000000, 2.449293598294706414E-16, 0.000000000000000000 ) ) ;
#66 =( GEOMETRIC_REPRESENTATION_CONTEXT ( 3 ) GLOBAL_UNCERTAINTY_ASSIGNED_CONTEXT ( ( #266 ) ) GLOBAL_UNIT_ASSIGNED_CONTEXT ( ( #98, #295, #58 ) ) REPRESENTATION_CONTEXT ( 'NONE', 'WORKASPACE' ) );
#67 = DIRECTION ( 'NONE',  ( -1.000000000000000000, 1.224646799147353207E-16, 0.000000000000000000 ) ) ;
#68 = DIRECTION ( 'NONE',  ( 1.000000000000000000, 0.000000000000000000, 0.000000000000000000 ) ) ;
#69 = CYLINDRICAL_SURFACE ( 'NONE', #18, 2.000000000000000000 ) ;
#70 = MANIFOLD_SOLID_BREP ( 'Zaoblit1', #261 ) ;
#71 = DIRECTION ( 'NONE',  ( -1.000000000000000000, 0.000000000000000000, 0.000000000000000000 ) ) ;
#72 = DIRECTION ( 'NONE',  ( 1.000000000000000000, 0.000000000000000000, 0.000000000000000000 ) ) ;
#73 = CC_DESIGN_PERSON_AND_ORGANIZATION_ASSIGNMENT ( #54, #276, ( #153 ) ) ;
#74 = ORIENTED_EDGE ( 'NONE', *, *, #198, .F. ) ;
#75 = PERSON_AND_ORGANIZATION_ROLE ( 'design_supplier' ) ;
#76 = AXIS2_PLACEMENT_3D ( 'NONE', #237, #292, #117 ) ;
#77 = AXIS2_PLACEMENT_3D ( 'NONE', #46, #307, #283 ) ;
#78 = EDGE_CURVE ( 'NONE', #45, #299, #256, .T. ) ;
#79 = ADVANCED_BREP_SHAPE_REPRESENTATION ( '2b70', ( #70, #287 ), #66 ) ;
#80 = CC_DESIGN_DATE_AND_TIME_ASSIGNMENT ( #35, #130, ( #53 ) ) ;
#81 = ORIENTED_EDGE ( 'NONE', *, *, #57, .F. ) ;
#82 = PLANE ( 'NONE',  #173 ) ;
#83 = PERSON ( 'NEURÈENÝ', 'NEURÈENÝ', 'NEURÈENÝ', ('NEURÈENÝ'), ('NEURÈENÝ'), ('NEURÈENÝ') ) ;
#84 = EDGE_LOOP ( 'NONE', ( #203, #32 ) ) ;
#85 = ADVANCED_FACE ( 'NONE', ( #230 ), #267, .F. ) ;
#86 = AXIS2_PLACEMENT_3D ( 'NONE', #205, #162, #17 ) ;
#87 = DIRECTION ( 'NONE',  ( 1.000000000000000000, 0.000000000000000000, -0.000000000000000000 ) ) ;
#88 = PLANE ( 'NONE',  #300 ) ;
#89 = DIRECTION ( 'NONE',  ( 1.000000000000000000, 0.000000000000000000, 0.000000000000000000 ) ) ;
#90 = LOCAL_TIME ( 12, 34, 22.00000000000000000, #245 ) ;
#91 = ADVANCED_FACE ( 'NONE', ( #303 ), #82, .T. ) ;
#92 = AXIS2_PLACEMENT_3D ( 'NONE', #264, #51, #192 ) ;
#93 = DIRECTION ( 'NONE',  ( -0.000000000000000000, -0.000000000000000000, -1.000000000000000000 ) ) ;
#94 = CARTESIAN_POINT ( 'NONE',  ( 0.000000000000000000, 0.000000000000000000, 2.000000000000000000 ) ) ;
#95 = DIRECTION ( 'NONE',  ( -0.000000000000000000, -0.000000000000000000, -1.000000000000000000 ) ) ;
#96 = APPROVAL ( #13, 'NEURÈENÝ' ) ;
#97 = FACE_OUTER_BOUND ( 'NONE', #221, .T. ) ;
#98 =( LENGTH_UNIT ( ) NAMED_UNIT ( * ) SI_UNIT ( .MILLI., .METRE. ) );
#99 = ORIENTED_EDGE ( 'NONE', *, *, #47, .F. ) ;
#100 = APPROVAL_DATE_TIME ( #106, #64 ) ;
#101 = EDGE_CURVE ( 'NONE', #40, #104, #220, .T. ) ;
#102 = CIRCLE ( 'NONE', #154, 1.100000000000000089 ) ;
#103 = DATE_AND_TIME ( #36, #16 ) ;
#104 = VERTEX_POINT ( 'NONE', #206 ) ;
#105 = MECHANICAL_CONTEXT ( 'NONE', #165, 'mechanical' ) ;
#106 = DATE_AND_TIME ( #9, #201 ) ;
#107 = VERTEX_POINT ( 'NONE', #62 ) ;
#108 = CC_DESIGN_APPROVAL ( #64, ( #282 ) ) ;
#109 = CARTESIAN_POINT ( 'NONE',  ( 0.000000000000000000, 0.000000000000000000, 2.200000000000007283 ) ) ;
#110 = SHAPE_DEFINITION_REPRESENTATION ( #239, #79 ) ;
#111 = EDGE_LOOP ( 'NONE', ( #157, #224, #140, #99 ) ) ;
#112 = DESIGN_CONTEXT ( 'detailed design', #155, 'design' ) ;
#113 = DIRECTION ( 'NONE',  ( 0.000000000000000000, 0.000000000000000000, -1.000000000000000000 ) ) ;
#114 = CC_DESIGN_PERSON_AND_ORGANIZATION_ASSIGNMENT ( #275, #55, ( #53 ) ) ;
#115 = DIRECTION ( 'NONE',  ( 1.000000000000000000, 0.000000000000000000, 0.000000000000000000 ) ) ;
#116 = DIRECTION ( 'NONE',  ( 0.000000000000000000, 0.000000000000000000, 1.000000000000000000 ) ) ;
#117 = DIRECTION ( 'NONE',  ( 1.000000000000000000, 0.000000000000000000, 0.000000000000000000 ) ) ;
#118 = DIRECTION ( 'NONE',  ( 0.000000000000000000, 0.000000000000000000, 1.000000000000000000 ) ) ;
#119 = CARTESIAN_POINT ( 'NONE',  ( -1.100000000000000089, 0.000000000000000000, 162.0000000000000000 ) ) ;
#120 = AXIS2_PLACEMENT_3D ( 'NONE', #63, #116, #164 ) ;
#121 = DIRECTION ( 'NONE',  ( 0.000000000000000000, 0.000000000000000000, 1.000000000000000000 ) ) ;
#122 = EDGE_CURVE ( 'NONE', #185, #40, #134, .T. ) ;
#123 = CARTESIAN_POINT ( 'NONE',  ( 0.000000000000000000, 0.000000000000000000, 162.0000000000000000 ) ) ;
#124 = AXIS2_PLACEMENT_3D ( 'NONE', #288, #52, #67 ) ;
#125 = PERSON_AND_ORGANIZATION ( #83, #24 ) ;
#126 = EDGE_LOOP ( 'NONE', ( #207, #129, #136, #176 ) ) ;
#127 = AXIS2_PLACEMENT_3D ( 'NONE', #255, #44, #113 ) ;
#128 = CALENDAR_DATE ( 2022, 7, 7 ) ;
#129 = ORIENTED_EDGE ( 'NONE', *, *, #262, .T. ) ;
#130 = DATE_TIME_ROLE ( 'classification_date' ) ;
#131 = CALENDAR_DATE ( 2022, 7, 7 ) ;
#132 = PERSON_AND_ORGANIZATION ( #83, #24 ) ;
#133 = EDGE_LOOP ( 'NONE', ( #301, #195 ) ) ;
#134 = CIRCLE ( 'NONE', #270, 1.100000000000000089 ) ;
#135 = ADVANCED_FACE ( 'NONE', ( #172 ), #145, .T. ) ;
#136 = ORIENTED_EDGE ( 'NONE', *, *, #37, .F. ) ;
#137 = CC_DESIGN_APPROVAL ( #96, ( #53 ) ) ;
#138 = DIRECTION ( 'NONE',  ( 1.000000000000000000, 0.000000000000000000, 0.000000000000000000 ) ) ;
#139 = AXIS2_PLACEMENT_3D ( 'NONE', #194, #234, #216 ) ;
#140 = ORIENTED_EDGE ( 'NONE', *, *, #167, .T. ) ;
#141 = EDGE_CURVE ( 'NONE', #40, #185, #42, .T. ) ;
#142 = EDGE_LOOP ( 'NONE', ( #277, #159, #279, #34 ) ) ;
#143 = DIRECTION ( 'NONE',  ( 0.000000000000000000, 0.000000000000000000, 1.000000000000000000 ) ) ;
#144 = ADVANCED_FACE ( 'NONE', ( #193, #97 ), #28, .T. ) ;
#145 = CYLINDRICAL_SURFACE ( 'NONE', #228, 2.000000000000000000 ) ;
#146 = DIRECTION ( 'NONE',  ( -1.000000000000000000, 0.000000000000000000, 0.000000000000000000 ) ) ;
#147 = CARTESIAN_POINT ( 'NONE',  ( 0.000000000000000000, 0.000000000000000000, 162.0000000000000000 ) ) ;
#148 = VECTOR ( 'NONE', #263, 1000.000000000000000 ) ;
#149 = CARTESIAN_POINT ( 'NONE',  ( -1.100000000000000089, 0.000000000000000000, 2.200000000000007283 ) ) ;
#150 = EDGE_CURVE ( 'NONE', #257, #14, #274, .T. ) ;
#151 = CYLINDRICAL_SURFACE ( 'NONE', #281, 1.100000000000000089 ) ;
#152 = APPLICATION_PROTOCOL_DEFINITION ( 'international standard', 'config_control_design', 1994, #165 ) ;
#153 = PRODUCT_DEFINITION_FORMATION_WITH_SPECIFIED_SOURCE ( 'LIBOVOLNÝ', '', #296, .NOT_KNOWN. ) ;
#154 = AXIS2_PLACEMENT_3D ( 'NONE', #215, #7, #294 ) ;
#155 = APPLICATION_CONTEXT ( 'configuration controlled 3d designs of mechanical parts and assemblies' ) ;
#156 = PERSON_AND_ORGANIZATION ( #83, #24 ) ;
#157 = ORIENTED_EDGE ( 'NONE', *, *, #26, .F. ) ;
#158 = EDGE_CURVE ( 'NONE', #299, #45, #102, .T. ) ;
#159 = ORIENTED_EDGE ( 'NONE', *, *, #29, .F. ) ;
#160 = DIRECTION ( 'NONE',  ( 0.000000000000000000, 0.000000000000000000, 1.000000000000000000 ) ) ;
#161 = AXIS2_PLACEMENT_3D ( 'NONE', #48, #121, #260 ) ;
#162 = DIRECTION ( 'NONE',  ( 0.000000000000000000, 0.000000000000000000, 1.000000000000000000 ) ) ;
#163 = DIRECTION ( 'NONE',  ( 1.000000000000000000, 0.000000000000000000, -0.000000000000000000 ) ) ;
#164 = DIRECTION ( 'NONE',  ( 1.000000000000000000, 0.000000000000000000, 0.000000000000000000 ) ) ;
#165 = APPLICATION_CONTEXT ( 'configuration controlled 3d designs of mechanical parts and assemblies' ) ;
#166 = CARTESIAN_POINT ( 'NONE',  ( -1.100000000000000089, 0.000000000000000000, 162.0000000000000000 ) ) ;
#167 = EDGE_CURVE ( 'NONE', #14, #257, #3, .T. ) ;
#168 = DIRECTION ( 'NONE',  ( -0.000000000000000000, -0.000000000000000000, -1.000000000000000000 ) ) ;
#169 = FACE_OUTER_BOUND ( 'NONE', #183, .T. ) ;
#170 = CC_DESIGN_DATE_AND_TIME_ASSIGNMENT ( #103, #219, ( #282 ) ) ;
#171 = CARTESIAN_POINT ( 'NONE',  ( 2.000000000000000000, 2.449293598294706414E-16, 2.000000000000000000 ) ) ;
#172 = FACE_OUTER_BOUND ( 'NONE', #111, .T. ) ;
#173 = AXIS2_PLACEMENT_3D ( 'NONE', #22, #186, #163 ) ;
#174 = COORDINATED_UNIVERSAL_TIME_OFFSET ( 1, 0, .AHEAD. ) ;
#175 = PERSON_AND_ORGANIZATION ( #83, #24 ) ;
#176 = ORIENTED_EDGE ( 'NONE', *, *, #101, .F. ) ;
#177 = SECURITY_CLASSIFICATION_LEVEL ( 'unclassified' ) ;
#178 = CIRCLE ( 'NONE', #86, 2.000000000000000000 ) ;
#179 = PERSON_AND_ORGANIZATION_ROLE ( 'creator' ) ;
#180 = ORIENTED_EDGE ( 'NONE', *, *, #198, .T. ) ;
#181 = DATE_AND_TIME ( #128, #196 ) ;
#182 = EDGE_CURVE ( 'NONE', #299, #185, #190, .T. ) ;
#183 = EDGE_LOOP ( 'NONE', ( #74, #252, #305, #249 ) ) ;
#184 = VECTOR ( 'NONE', #188, 1000.000000000000000 ) ;
#185 = VERTEX_POINT ( 'NONE', #149 ) ;
#186 = DIRECTION ( 'NONE',  ( 0.000000000000000000, 0.000000000000000000, 1.000000000000000000 ) ) ;
#187 = CARTESIAN_POINT ( 'NONE',  ( 1.100000000000000089, 1.347111479062088503E-16, 2.200000000000007283 ) ) ;
#188 = DIRECTION ( 'NONE',  ( -0.000000000000000000, -0.000000000000000000, -1.000000000000000000 ) ) ;
#189 = APPROVAL_PERSON_ORGANIZATION ( #297, #208, #269 ) ;
#190 = LINE ( 'NONE', #166, #148 ) ;
#191 = DIRECTION ( 'NONE',  ( -1.000000000000000000, 0.000000000000000000, 0.000000000000000000 ) ) ;
#192 = DIRECTION ( 'NONE',  ( 1.000000000000000000, 0.000000000000000000, 0.000000000000000000 ) ) ;
#193 = FACE_BOUND ( 'NONE', #59, .T. ) ;
#194 = CARTESIAN_POINT ( 'NONE',  ( 0.000000000000000000, 0.000000000000000000, 0.000000000000000000 ) ) ;
#195 = ORIENTED_EDGE ( 'NONE', *, *, #167, .F. ) ;
#196 = LOCAL_TIME ( 12, 34, 22.00000000000000000, #243 ) ;
#197 = APPROVAL_ROLE ( '' ) ;
#198 = EDGE_CURVE ( 'NONE', #45, #40, #268, .T. ) ;
#199 = APPROVAL_DATE_TIME ( #200, #96 ) ;
#200 = DATE_AND_TIME ( #131, #31 ) ;
#201 = LOCAL_TIME ( 12, 34, 22.00000000000000000, #174 ) ;
#202 = VECTOR ( 'NONE', #238, 1000.000000000000000 ) ;
#203 = ORIENTED_EDGE ( 'NONE', *, *, #158, .T. ) ;
#204 = AXIS2_PLACEMENT_3D ( 'NONE', #280, #20, #233 ) ;
#205 = CARTESIAN_POINT ( 'NONE',  ( 0.000000000000000000, 0.000000000000000000, 2.000000000000000000 ) ) ;
#206 = CARTESIAN_POINT ( 'NONE',  ( 1.300000000000000266, 0.000000000000000000, 2.000000000000003553 ) ) ;
#207 = ORIENTED_EDGE ( 'NONE', *, *, #122, .F. ) ;
#208 = APPROVAL ( #271, 'NEURÈENÝ' ) ;
#209 = ORIENTED_EDGE ( 'NONE', *, *, #57, .T. ) ;
#210 = LINE ( 'NONE', #171, #254 ) ;
#211 = CARTESIAN_POINT ( 'NONE',  ( 0.000000000000000000, 0.000000000000000000, 2.000000000000000000 ) ) ;
#212 = ADVANCED_FACE ( 'NONE', ( #4 ), #242, .F. ) ;
#213 = AXIS2_PLACEMENT_3D ( 'NONE', #8, #118, #89 ) ;
#214 = CIRCLE ( 'NONE', #77, 1.300000000000000266 ) ;
#215 = CARTESIAN_POINT ( 'NONE',  ( 0.000000000000000000, 0.000000000000000000, 162.0000000000000000 ) ) ;
#216 = DIRECTION ( 'NONE',  ( 1.000000000000000000, 0.000000000000000000, 0.000000000000000000 ) ) ;
#217 = FACE_OUTER_BOUND ( 'NONE', #12, .T. ) ;
#218 = ADVANCED_FACE ( 'NONE', ( #5 ), #69, .T. ) ;
#219 = DATE_TIME_ROLE ( 'creation_date' ) ;
#220 = CIRCLE ( 'NONE', #127, 0.2000000000000000944 ) ;
#221 = EDGE_LOOP ( 'NONE', ( #231, #10 ) ) ;
#222 = APPROVAL_DATE_TIME ( #181, #208 ) ;
#223 = ORIENTED_EDGE ( 'NONE', *, *, #141, .T. ) ;
#224 = ORIENTED_EDGE ( 'NONE', *, *, #232, .T. ) ;
#225 = CC_DESIGN_PERSON_AND_ORGANIZATION_ASSIGNMENT ( #132, #75, ( #153 ) ) ;
#226 = CALENDAR_DATE ( 2022, 7, 7 ) ;
#227 = CARTESIAN_POINT ( 'NONE',  ( -2.000000000000000000, 0.000000000000000000, 2.000000000000000000 ) ) ;
#228 = AXIS2_PLACEMENT_3D ( 'NONE', #211, #27, #71 ) ;
#229 = EDGE_LOOP ( 'NONE', ( #284, #244, #61, #81 ) ) ;
#230 = FACE_OUTER_BOUND ( 'NONE', #126, .T. ) ;
#231 = ORIENTED_EDGE ( 'NONE', *, *, #29, .T. ) ;
#232 = EDGE_CURVE ( 'NONE', #107, #14, #210, .T. ) ;
#233 = DIRECTION ( 'NONE',  ( 1.000000000000000000, 0.000000000000000000, 0.000000000000000000 ) ) ;
#234 = DIRECTION ( 'NONE',  ( 0.000000000000000000, 0.000000000000000000, 1.000000000000000000 ) ) ;
#235 = DIRECTION ( 'NONE',  ( 0.000000000000000000, 0.000000000000000000, 1.000000000000000000 ) ) ;
#236 = DIRECTION ( 'NONE',  ( -1.000000000000000000, 0.000000000000000000, 0.000000000000000000 ) ) ;
#237 = CARTESIAN_POINT ( 'NONE',  ( 0.000000000000000000, 0.000000000000000000, 2.200000000000007283 ) ) ;
#238 = DIRECTION ( 'NONE',  ( -0.000000000000000000, -0.000000000000000000, -1.000000000000000000 ) ) ;
#239 = PRODUCT_DEFINITION_SHAPE ( 'NONE', 'NONE',  #282 ) ;
#240 = PERSON_AND_ORGANIZATION_ROLE ( 'design_owner' ) ;
#241 = AXIS2_PLACEMENT_3D ( 'NONE', #147, #95, #236 ) ;
#242 = TOROIDAL_SURFACE ( 'NONE', #76, 1.300000000000000266, 0.2000000000000000111 ) ;
#243 = COORDINATED_UNIVERSAL_TIME_OFFSET ( 1, 0, .AHEAD. ) ;
#244 = ORIENTED_EDGE ( 'NONE', *, *, #141, .F. ) ;
#245 = COORDINATED_UNIVERSAL_TIME_OFFSET ( 1, 0, .AHEAD. ) ;
#246 = VERTEX_POINT ( 'NONE', #50 ) ;
#247 = PERSON_AND_ORGANIZATION ( #83, #24 ) ;
#248 = COORDINATED_UNIVERSAL_TIME_OFFSET ( 1, 0, .AHEAD. ) ;
#249 = ORIENTED_EDGE ( 'NONE', *, *, #122, .T. ) ;
#250 = CC_DESIGN_PERSON_AND_ORGANIZATION_ASSIGNMENT ( #125, #240, ( #296 ) ) ;
#251 = ORIENTED_EDGE ( 'NONE', *, *, #78, .F. ) ;
#252 = ORIENTED_EDGE ( 'NONE', *, *, #158, .F. ) ;
#253 = CIRCLE ( 'NONE', #124, 0.2000000000000000944 ) ;
#254 = VECTOR ( 'NONE', #289, 1000.000000000000000 ) ;
#255 = CARTESIAN_POINT ( 'NONE',  ( 1.300000000000000266, 0.000000000000000000, 2.200000000000007283 ) ) ;
#256 = CIRCLE ( 'NONE', #120, 1.100000000000000089 ) ;
#257 = VERTEX_POINT ( 'NONE', #1 ) ;
#258 = ADVANCED_FACE ( 'NONE', ( #169 ), #265, .T. ) ;
#259 = FACE_OUTER_BOUND ( 'NONE', #133, .T. ) ;
#260 = DIRECTION ( 'NONE',  ( 1.000000000000000000, 0.000000000000000000, -0.000000000000000000 ) ) ;
#261 = CLOSED_SHELL ( 'NONE', ( #85, #291, #135, #218, #144, #6, #258, #91, #212 ) ) ;
#262 = EDGE_CURVE ( 'NONE', #185, #273, #253, .T. ) ;
#263 = DIRECTION ( 'NONE',  ( -0.000000000000000000, -0.000000000000000000, -1.000000000000000000 ) ) ;
#264 = CARTESIAN_POINT ( 'NONE',  ( 0.000000000000000000, 0.000000000000000000, 2.200000000000007283 ) ) ;
#265 = CYLINDRICAL_SURFACE ( 'NONE', #241, 1.100000000000000089 ) ;
#266 = UNCERTAINTY_MEASURE_WITH_UNIT (LENGTH_MEASURE( 1.000000000000000082E-05 ), #98, 'distance_accuracy_value', 'NONE');
#267 = TOROIDAL_SURFACE ( 'NONE', #49, 1.300000000000000266, 0.2000000000000000111 ) ;
#268 = LINE ( 'NONE', #290, #202 ) ;
#269 = APPROVAL_ROLE ( '' ) ;
#270 = AXIS2_PLACEMENT_3D ( 'NONE', #23, #235, #68 ) ;
#271 = APPROVAL_STATUS ( 'not_yet_approved' ) ;
#272 = APPROVAL_PERSON_ORGANIZATION ( #247, #96, #197 ) ;
#273 = VERTEX_POINT ( 'NONE', #25 ) ;
#274 = CIRCLE ( 'NONE', #139, 2.000000000000000000 ) ;
#275 = PERSON_AND_ORGANIZATION ( #83, #24 ) ;
#276 = PERSON_AND_ORGANIZATION_ROLE ( 'creator' ) ;
#277 = ORIENTED_EDGE ( 'NONE', *, *, #232, .F. ) ;
#278 = ORIENTED_EDGE ( 'NONE', *, *, #37, .T. ) ;
#279 = ORIENTED_EDGE ( 'NONE', *, *, #47, .T. ) ;
#280 = CARTESIAN_POINT ( 'NONE',  ( 0.000000000000000000, 0.000000000000000000, 2.000000000000000000 ) ) ;
#281 = AXIS2_PLACEMENT_3D ( 'NONE', #123, #168, #146 ) ;
#282 = PRODUCT_DEFINITION ( 'NEZNÁMÝ', '', #153, #112 ) ;
#283 = DIRECTION ( 'NONE',  ( 1.000000000000000000, 0.000000000000000000, 0.000000000000000000 ) ) ;
#284 = ORIENTED_EDGE ( 'NONE', *, *, #262, .F. ) ;
#285 = ORIENTED_EDGE ( 'NONE', *, *, #182, .F. ) ;
#286 = PRODUCT_RELATED_PRODUCT_CATEGORY ( 'detail', '', ( #296 ) ) ;
#287 = AXIS2_PLACEMENT_3D ( 'NONE', #56, #30, #72 ) ;
#288 = CARTESIAN_POINT ( 'NONE',  ( -1.300000000000000266, 1.592040838891559342E-16, 2.200000000000007283 ) ) ;
#289 = DIRECTION ( 'NONE',  ( -0.000000000000000000, -0.000000000000000000, -1.000000000000000000 ) ) ;
#290 = CARTESIAN_POINT ( 'NONE',  ( 1.100000000000000089, 1.347111479062088503E-16, 162.0000000000000000 ) ) ;
#291 = ADVANCED_FACE ( 'NONE', ( #217 ), #151, .T. ) ;
#292 = DIRECTION ( 'NONE',  ( 0.000000000000000000, 0.000000000000000000, 1.000000000000000000 ) ) ;
#293 = CIRCLE ( 'NONE', #43, 1.300000000000000266 ) ;
#294 = DIRECTION ( 'NONE',  ( 1.000000000000000000, 0.000000000000000000, 0.000000000000000000 ) ) ;
#295 =( NAMED_UNIT ( * ) PLANE_ANGLE_UNIT ( ) SI_UNIT ( $, .RADIAN. ) );
#296 = PRODUCT ( '2b70', '2b70', '', ( #105 ) ) ;
#297 = PERSON_AND_ORGANIZATION ( #83, #24 ) ;
#298 = APPROVAL_PERSON_ORGANIZATION ( #156, #64, #33 ) ;
#299 = VERTEX_POINT ( 'NONE', #119 ) ;
#300 = AXIS2_PLACEMENT_3D ( 'NONE', #19, #160, #87 ) ;
#301 = ORIENTED_EDGE ( 'NONE', *, *, #150, .F. ) ;
#302 = COORDINATED_UNIVERSAL_TIME_OFFSET ( 1, 0, .AHEAD. ) ;
#303 = FACE_OUTER_BOUND ( 'NONE', #84, .T. ) ;
#304 = DIRECTION ( 'NONE',  ( -0.000000000000000000, -0.000000000000000000, -1.000000000000000000 ) ) ;
#305 = ORIENTED_EDGE ( 'NONE', *, *, #182, .T. ) ;
#306 = CARTESIAN_POINT ( 'NONE',  ( 1.100000000000000089, 1.347111479062088503E-16, 162.0000000000000000 ) ) ;
#307 = DIRECTION ( 'NONE',  ( -0.000000000000000000, -0.000000000000000000, -1.000000000000000000 ) ) ;
ENDSEC;
END-ISO-10303-21;
