ISO-10303-21;
HEADER;
FILE_DESCRIPTION (( 'STEP AP203' ),
    '1' );
FILE_NAME ('d37e.STEP',
    '2022-07-07T09:50:48',
    ( '' ),
    ( '' ),
    'SwSTEP 2.0',
    'SolidWorks 2019',
    '' );
FILE_SCHEMA (( 'CONFIG_CONTROL_DESIGN' ));
ENDSEC;

DATA;
#1 = VERTEX_POINT ( 'NONE', #307 ) ;
#2 = EDGE_CURVE ( 'NONE', #223, #301, #83, .T. ) ;
#3 = VERTEX_POINT ( 'NONE', #214 ) ;
#4 = DIRECTION ( 'NONE',  ( 0.000000000000000000, -1.000000000000000000, 0.000000000000000000 ) ) ;
#5 = CC_DESIGN_APPROVAL ( #220, ( #80 ) ) ;
#6 = CARTESIAN_POINT ( 'NONE',  ( 0.000000000000000000, 0.000000000000000000, 5.000000000000000000 ) ) ;
#7 = APPROVAL ( #251, 'NEURÈENÝ' ) ;
#8 = UNCERTAINTY_MEASURE_WITH_UNIT (LENGTH_MEASURE( 1.000000000000000082E-05 ), #105, 'distance_accuracy_value', 'NONE');
#9 = DIRECTION ( 'NONE',  ( 0.000000000000000000, 0.000000000000000000, 1.000000000000000000 ) ) ;
#10 = CARTESIAN_POINT ( 'NONE',  ( 0.000000000000000000, 0.000000000000000000, 5.000000000000000000 ) ) ;
#11 = FACE_OUTER_BOUND ( 'NONE', #262, .T. ) ;
#12 = FACE_OUTER_BOUND ( 'NONE', #87, .T. ) ;
#13 = DIRECTION ( 'NONE',  ( -0.000000000000000000, -0.000000000000000000, -1.000000000000000000 ) ) ;
#14 = VECTOR ( 'NONE', #293, 1000.000000000000000 ) ;
#15 = APPLICATION_PROTOCOL_DEFINITION ( 'international standard', 'config_control_design', 1994, #158 ) ;
#16 = PERSON_AND_ORGANIZATION_ROLE ( 'classification_officer' ) ;
#17 = APPROVAL_ROLE ( '' ) ;
#18 = VERTEX_POINT ( 'NONE', #288 ) ;
#19 = CIRCLE ( 'NONE', #29, 5.250000000000000888 ) ;
#20 = DATE_TIME_ROLE ( 'classification_date' ) ;
#21 = EDGE_LOOP ( 'NONE', ( #66, #136 ) ) ;
#22 = ORIENTED_EDGE ( 'NONE', *, *, #2, .F. ) ;
#23 = CARTESIAN_POINT ( 'NONE',  ( 0.000000000000000000, 0.000000000000000000, 5.000000000000000000 ) ) ;
#24 = CC_DESIGN_DATE_AND_TIME_ASSIGNMENT ( #64, #181, ( #80 ) ) ;
#25 = ORIENTED_EDGE ( 'NONE', *, *, #272, .F. ) ;
#26 = EDGE_LOOP ( 'NONE', ( #259, #207 ) ) ;
#27 = AXIS2_PLACEMENT_3D ( 'NONE', #6, #143, #236 ) ;
#28 = DIRECTION ( 'NONE',  ( 0.000000000000000000, 0.000000000000000000, 1.000000000000000000 ) ) ;
#29 = AXIS2_PLACEMENT_3D ( 'NONE', #102, #177, #275 ) ;
#30 = CARTESIAN_POINT ( 'NONE',  ( 0.000000000000000000, 0.000000000000000000, 5.200000000000009948 ) ) ;
#31 = PLANE ( 'NONE',  #32 ) ;
#32 = AXIS2_PLACEMENT_3D ( 'NONE', #217, #34, #37 ) ;
#33 = CYLINDRICAL_SURFACE ( 'NONE', #152, 5.250000000000000888 ) ;
#34 = DIRECTION ( 'NONE',  ( 0.000000000000000000, 0.000000000000000000, 1.000000000000000000 ) ) ;
#35 = COORDINATED_UNIVERSAL_TIME_OFFSET ( 1, 0, .AHEAD. ) ;
#36 = ADVANCED_FACE ( 'NONE', ( #114 ), #69, .T. ) ;
#37 = DIRECTION ( 'NONE',  ( 1.000000000000000000, 0.000000000000000000, -0.000000000000000000 ) ) ;
#38 = ORIENTED_EDGE ( 'NONE', *, *, #2, .T. ) ;
#39 = CARTESIAN_POINT ( 'NONE',  ( 0.000000000000000000, 0.000000000000000000, 0.000000000000000000 ) ) ;
#40 = AXIS2_PLACEMENT_3D ( 'NONE', #23, #209, #81 ) ;
#41 = AXIS2_PLACEMENT_3D ( 'NONE', #30, #9, #244 ) ;
#42 = PERSON_AND_ORGANIZATION ( #163, #256 ) ;
#43 = ORIENTED_EDGE ( 'NONE', *, *, #59, .T. ) ;
#44 = DIRECTION ( 'NONE',  ( 0.000000000000000000, 0.000000000000000000, 1.000000000000000000 ) ) ;
#45 = ADVANCED_FACE ( 'NONE', ( #195 ), #286, .T. ) ;
#46 = APPROVAL_PERSON_ORGANIZATION ( #178, #7, #17 ) ;
#47 = CARTESIAN_POINT ( 'NONE',  ( 0.000000000000000000, 0.000000000000000000, 5.200000000000009948 ) ) ;
#48 = VERTEX_POINT ( 'NONE', #93 ) ;
#49 = EDGE_CURVE ( 'NONE', #18, #169, #123, .T. ) ;
#50 = DIRECTION ( 'NONE',  ( -0.000000000000000000, -0.000000000000000000, -1.000000000000000000 ) ) ;
#51 = PRODUCT_DEFINITION_SHAPE ( 'NONE', 'NONE',  #80 ) ;
#52 = FACE_OUTER_BOUND ( 'NONE', #192, .T. ) ;
#53 = PRODUCT ( 'd37e', 'd37e', '', ( #164 ) ) ;
#54 = DIRECTION ( 'NONE',  ( 1.224646799147353207E-16, 1.000000000000000000, -0.000000000000000000 ) ) ;
#55 = CARTESIAN_POINT ( 'NONE',  ( -8.000000000000000000, 0.000000000000000000, 5.000000000000000000 ) ) ;
#56 = AXIS2_PLACEMENT_3D ( 'NONE', #47, #44, #142 ) ;
#57 = CC_DESIGN_APPROVAL ( #7, ( #299 ) ) ;
#58 = DIRECTION ( 'NONE',  ( -0.000000000000000000, -0.000000000000000000, -1.000000000000000000 ) ) ;
#59 = EDGE_CURVE ( 'NONE', #169, #248, #266, .T. ) ;
#60 =( NAMED_UNIT ( * ) PLANE_ANGLE_UNIT ( ) SI_UNIT ( $, .RADIAN. ) );
#61 = EDGE_LOOP ( 'NONE', ( #25, #74, #305, #182 ) ) ;
#62 = PERSON_AND_ORGANIZATION_ROLE ( 'creator' ) ;
#63 = AXIS2_PLACEMENT_3D ( 'NONE', #153, #120, #79 ) ;
#64 = DATE_AND_TIME ( #154, #118 ) ;
#65 = DATE_AND_TIME ( #108, #295 ) ;
#66 = ORIENTED_EDGE ( 'NONE', *, *, #296, .T. ) ;
#67 = COORDINATED_UNIVERSAL_TIME_OFFSET ( 1, 0, .AHEAD. ) ;
#68 = LOCAL_TIME ( 11, 50, 48.00000000000000000, #35 ) ;
#69 = CYLINDRICAL_SURFACE ( 'NONE', #88, 8.000000000000000000 ) ;
#70 = ADVANCED_FACE ( 'NONE', ( #233 ), #238, .T. ) ;
#71 = DIRECTION ( 'NONE',  ( 1.000000000000000000, 0.000000000000000000, -0.000000000000000000 ) ) ;
#72 = DIRECTION ( 'NONE',  ( -1.000000000000000000, 0.000000000000000000, 0.000000000000000000 ) ) ;
#73 = TOROIDAL_SURFACE ( 'NONE', #41, 5.450000000000001066, 0.2000000000000000111 ) ;
#74 = ORIENTED_EDGE ( 'NONE', *, *, #162, .T. ) ;
#75 = ORIENTED_EDGE ( 'NONE', *, *, #59, .F. ) ;
#76 = DIRECTION ( 'NONE',  ( -0.000000000000000000, -0.000000000000000000, -1.000000000000000000 ) ) ;
#77 = VECTOR ( 'NONE', #284, 1000.000000000000000 ) ;
#78 = DIRECTION ( 'NONE',  ( -0.000000000000000000, -0.000000000000000000, -1.000000000000000000 ) ) ;
#79 = DIRECTION ( 'NONE',  ( 1.000000000000000000, 0.000000000000000000, 0.000000000000000000 ) ) ;
#80 = PRODUCT_DEFINITION ( 'NEZNÁMÝ', '', #299, #97 ) ;
#81 = DIRECTION ( 'NONE',  ( 1.000000000000000000, 0.000000000000000000, 0.000000000000000000 ) ) ;
#82 = DIRECTION ( 'NONE',  ( -1.000000000000000000, 0.000000000000000000, 0.000000000000000000 ) ) ;
#83 = CIRCLE ( 'NONE', #27, 8.000000000000000000 ) ;
#84 = CC_DESIGN_PERSON_AND_ORGANIZATION_ASSIGNMENT ( #254, #247, ( #299 ) ) ;
#85 = DIRECTION ( 'NONE',  ( 0.000000000000000000, 0.000000000000000000, 1.000000000000000000 ) ) ;
#86 = AXIS2_PLACEMENT_3D ( 'NONE', #170, #235, #210 ) ;
#87 = EDGE_LOOP ( 'NONE', ( #160, #183, #75, #279 ) ) ;
#88 = AXIS2_PLACEMENT_3D ( 'NONE', #208, #119, #72 ) ;
#89 = ADVANCED_FACE ( 'NONE', ( #167 ), #92, .F. ) ;
#90 = APPROVAL_PERSON_ORGANIZATION ( #302, #245, #280 ) ;
#91 = CARTESIAN_POINT ( 'NONE',  ( -5.250000000000000888, 0.000000000000000000, 165.0000000000000000 ) ) ;
#92 = PLANE ( 'NONE',  #193 ) ;
#93 = CARTESIAN_POINT ( 'NONE',  ( -5.250000000000000888, 0.000000000000000000, 165.0000000000000000 ) ) ;
#94 = APPROVAL_PERSON_ORGANIZATION ( #42, #220, #222 ) ;
#95 = AXIS2_PLACEMENT_3D ( 'NONE', #242, #54, #148 ) ;
#96 = EDGE_LOOP ( 'NONE', ( #43, #145 ) ) ;
#97 = DESIGN_CONTEXT ( 'detailed design', #191, 'design' ) ;
#98 = CARTESIAN_POINT ( 'NONE',  ( 0.000000000000000000, 0.000000000000000000, 5.000000000000000000 ) ) ;
#99 = FACE_OUTER_BOUND ( 'NONE', #61, .T. ) ;
#100 = EDGE_CURVE ( 'NONE', #48, #3, #141, .T. ) ;
#101 = DIRECTION ( 'NONE',  ( -0.000000000000000000, -0.000000000000000000, -1.000000000000000000 ) ) ;
#102 = CARTESIAN_POINT ( 'NONE',  ( 0.000000000000000000, 0.000000000000000000, 165.0000000000000000 ) ) ;
#103 = DIRECTION ( 'NONE',  ( 0.000000000000000000, 0.000000000000000000, 1.000000000000000000 ) ) ;
#104 = CC_DESIGN_DATE_AND_TIME_ASSIGNMENT ( #135, #20, ( #203 ) ) ;
#105 =( LENGTH_UNIT ( ) NAMED_UNIT ( * ) SI_UNIT ( .MILLI., .METRE. ) );
#106 = APPLICATION_PROTOCOL_DEFINITION ( 'international standard', 'config_control_design', 1994, #191 ) ;
#107 = CALENDAR_DATE ( 2022, 7, 7 ) ;
#108 = CALENDAR_DATE ( 2022, 7, 7 ) ;
#109 = APPROVAL_DATE_TIME ( #225, #220 ) ;
#110 = ORIENTED_EDGE ( 'NONE', *, *, #168, .F. ) ;
#111 = ORIENTED_EDGE ( 'NONE', *, *, #162, .F. ) ;
#112 = ORIENTED_EDGE ( 'NONE', *, *, #49, .T. ) ;
#113 =( GEOMETRIC_REPRESENTATION_CONTEXT ( 3 ) GLOBAL_UNCERTAINTY_ASSIGNED_CONTEXT ( ( #8 ) ) GLOBAL_UNIT_ASSIGNED_CONTEXT ( ( #105, #60, #184 ) ) REPRESENTATION_CONTEXT ( 'NONE', 'WORKASPACE' ) );
#114 = FACE_OUTER_BOUND ( 'NONE', #140, .T. ) ;
#115 = ORIENTED_EDGE ( 'NONE', *, *, #121, .F. ) ;
#116 = CARTESIAN_POINT ( 'NONE',  ( 5.450000000000001066, 0.000000000000000000, 5.200000000000009948 ) ) ;
#117 = AXIS2_PLACEMENT_3D ( 'NONE', #151, #103, #122 ) ;
#118 = LOCAL_TIME ( 11, 50, 48.00000000000000000, #230 ) ;
#119 = DIRECTION ( 'NONE',  ( -0.000000000000000000, -0.000000000000000000, -1.000000000000000000 ) ) ;
#120 = DIRECTION ( 'NONE',  ( 0.000000000000000000, 0.000000000000000000, 1.000000000000000000 ) ) ;
#121 = EDGE_CURVE ( 'NONE', #18, #3, #198, .T. ) ;
#122 = DIRECTION ( 'NONE',  ( 1.000000000000000000, 0.000000000000000000, 0.000000000000000000 ) ) ;
#123 = CIRCLE ( 'NONE', #298, 0.1999999999999996503 ) ;
#124 = LINE ( 'NONE', #291, #273 ) ;
#125 = AXIS2_PLACEMENT_3D ( 'NONE', #127, #76, #265 ) ;
#126 = FACE_OUTER_BOUND ( 'NONE', #257, .T. ) ;
#127 = CARTESIAN_POINT ( 'NONE',  ( 0.000000000000000000, 0.000000000000000000, 5.000000000000000000 ) ) ;
#128 = AXIS2_PLACEMENT_3D ( 'NONE', #98, #50, #147 ) ;
#129 = ORIENTED_EDGE ( 'NONE', *, *, #100, .T. ) ;
#130 = LOCAL_TIME ( 11, 50, 48.00000000000000000, #179 ) ;
#131 = SECURITY_CLASSIFICATION_LEVEL ( 'unclassified' ) ;
#132 = ORIENTED_EDGE ( 'NONE', *, *, #157, .T. ) ;
#133 = EDGE_CURVE ( 'NONE', #301, #223, #176, .T. ) ;
#134 = PERSON_AND_ORGANIZATION ( #163, #256 ) ;
#135 = DATE_AND_TIME ( #107, #68 ) ;
#136 = ORIENTED_EDGE ( 'NONE', *, *, #272, .T. ) ;
#137 = CIRCLE ( 'NONE', #213, 5.450000000000001066 ) ;
#138 = CALENDAR_DATE ( 2022, 7, 7 ) ;
#139 = EDGE_CURVE ( 'NONE', #1, #166, #255, .T. ) ;
#140 = EDGE_LOOP ( 'NONE', ( #22, #283, #132, #110 ) ) ;
#141 = LINE ( 'NONE', #91, #77 ) ;
#142 = DIRECTION ( 'NONE',  ( 1.000000000000000000, 0.000000000000000000, 0.000000000000000000 ) ) ;
#143 = DIRECTION ( 'NONE',  ( 0.000000000000000000, 0.000000000000000000, 1.000000000000000000 ) ) ;
#144 = EDGE_CURVE ( 'NONE', #223, #166, #124, .T. ) ;
#145 = ORIENTED_EDGE ( 'NONE', *, *, #201, .T. ) ;
#146 = SHAPE_DEFINITION_REPRESENTATION ( #51, #187 ) ;
#147 = DIRECTION ( 'NONE',  ( 1.000000000000000000, 0.000000000000000000, 0.000000000000000000 ) ) ;
#148 = DIRECTION ( 'NONE',  ( -1.000000000000000000, 1.224646799147353454E-16, 0.000000000000000000 ) ) ;
#149 = DIRECTION ( 'NONE',  ( 0.000000000000000000, 0.000000000000000000, 1.000000000000000000 ) ) ;
#150 = FACE_BOUND ( 'NONE', #96, .T. ) ;
#151 = CARTESIAN_POINT ( 'NONE',  ( 0.000000000000000000, 0.000000000000000000, 0.000000000000000000 ) ) ;
#152 = AXIS2_PLACEMENT_3D ( 'NONE', #292, #101, #82 ) ;
#153 = CARTESIAN_POINT ( 'NONE',  ( 0.000000000000000000, 0.000000000000000000, 5.200000000000009948 ) ) ;
#154 = CALENDAR_DATE ( 2022, 7, 7 ) ;
#155 = COORDINATED_UNIVERSAL_TIME_OFFSET ( 1, 0, .AHEAD. ) ;
#156 = ORIENTED_EDGE ( 'NONE', *, *, #296, .F. ) ;
#157 = EDGE_CURVE ( 'NONE', #166, #1, #205, .T. ) ;
#158 = APPLICATION_CONTEXT ( 'configuration controlled 3d designs of mechanical parts and assemblies' ) ;
#159 = PERSON_AND_ORGANIZATION ( #163, #256 ) ;
#160 = ORIENTED_EDGE ( 'NONE', *, *, #189, .F. ) ;
#161 = PERSON_AND_ORGANIZATION ( #163, #256 ) ;
#162 = EDGE_CURVE ( 'NONE', #226, #18, #219, .T. ) ;
#163 = PERSON ( 'NEURÈENÝ', 'NEURÈENÝ', 'NEURÈENÝ', ('NEURÈENÝ'), ('NEURÈENÝ'), ('NEURÈENÝ') ) ;
#164 = MECHANICAL_CONTEXT ( 'NONE', #158, 'mechanical' ) ;
#165 = DIRECTION ( 'NONE',  ( 1.000000000000000000, 0.000000000000000000, -0.000000000000000000 ) ) ;
#166 = VERTEX_POINT ( 'NONE', #218 ) ;
#167 = FACE_OUTER_BOUND ( 'NONE', #26, .T. ) ;
#168 = EDGE_CURVE ( 'NONE', #301, #1, #215, .T. ) ;
#169 = VERTEX_POINT ( 'NONE', #175 ) ;
#170 = CARTESIAN_POINT ( 'NONE',  ( 0.000000000000000000, 0.000000000000000000, 165.0000000000000000 ) ) ;
#171 = CC_DESIGN_PERSON_AND_ORGANIZATION_ASSIGNMENT ( #224, #16, ( #203 ) ) ;
#172 = CYLINDRICAL_SURFACE ( 'NONE', #125, 8.000000000000000000 ) ;
#173 = CARTESIAN_POINT ( 'NONE',  ( 0.000000000000000000, 0.000000000000000000, 0.000000000000000000 ) ) ;
#174 = DIRECTION ( 'NONE',  ( 0.000000000000000000, 0.000000000000000000, 1.000000000000000000 ) ) ;
#175 = CARTESIAN_POINT ( 'NONE',  ( 5.450000000000001066, 0.000000000000000000, 5.000000000000005329 ) ) ;
#176 = CIRCLE ( 'NONE', #40, 8.000000000000000000 ) ;
#177 = DIRECTION ( 'NONE',  ( 0.000000000000000000, 0.000000000000000000, 1.000000000000000000 ) ) ;
#178 = PERSON_AND_ORGANIZATION ( #163, #256 ) ;
#179 = COORDINATED_UNIVERSAL_TIME_OFFSET ( 1, 0, .AHEAD. ) ;
#180 = ORIENTED_EDGE ( 'NONE', *, *, #133, .F. ) ;
#181 = DATE_TIME_ROLE ( 'creation_date' ) ;
#182 = ORIENTED_EDGE ( 'NONE', *, *, #100, .F. ) ;
#183 = ORIENTED_EDGE ( 'NONE', *, *, #232, .T. ) ;
#184 =( NAMED_UNIT ( * ) SI_UNIT ( $, .STERADIAN. ) SOLID_ANGLE_UNIT ( ) );
#185 = ORIENTED_EDGE ( 'NONE', *, *, #189, .T. ) ;
#186 = AXIS2_PLACEMENT_3D ( 'NONE', #199, #174, #269 ) ;
#187 = ADVANCED_BREP_SHAPE_REPRESENTATION ( 'd37e', ( #237, #194 ), #113 ) ;
#188 = EDGE_LOOP ( 'NONE', ( #111, #156, #129, #185 ) ) ;
#189 = EDGE_CURVE ( 'NONE', #3, #18, #261, .T. ) ;
#190 = ORIENTED_EDGE ( 'NONE', *, *, #232, .F. ) ;
#191 = APPLICATION_CONTEXT ( 'configuration controlled 3d designs of mechanical parts and assemblies' ) ;
#192 = EDGE_LOOP ( 'NONE', ( #190, #115, #112, #250 ) ) ;
#193 = AXIS2_PLACEMENT_3D ( 'NONE', #258, #260, #71 ) ;
#194 = AXIS2_PLACEMENT_3D ( 'NONE', #39, #85, #278 ) ;
#195 = FACE_OUTER_BOUND ( 'NONE', #188, .T. ) ;
#196 = PRODUCT_RELATED_PRODUCT_CATEGORY ( 'detail', '', ( #53 ) ) ;
#197 = CARTESIAN_POINT ( 'NONE',  ( -8.000000000000000000, 0.000000000000000000, 5.000000000000000000 ) ) ;
#198 = CIRCLE ( 'NONE', #56, 5.250000000000000888 ) ;
#199 = CARTESIAN_POINT ( 'NONE',  ( 0.000000000000000000, 0.000000000000000000, 165.0000000000000000 ) ) ;
#200 = DIRECTION ( 'NONE',  ( 1.000000000000000000, 0.000000000000000000, 0.000000000000000000 ) ) ;
#201 = EDGE_CURVE ( 'NONE', #248, #169, #137, .T. ) ;
#202 = DIRECTION ( 'NONE',  ( 1.000000000000000000, 0.000000000000000000, 0.000000000000000000 ) ) ;
#203 = SECURITY_CLASSIFICATION ( '', '', #131 ) ;
#204 = APPROVAL_STATUS ( 'not_yet_approved' ) ;
#205 = CIRCLE ( 'NONE', #276, 8.000000000000000000 ) ;
#206 = APPROVAL_STATUS ( 'not_yet_approved' ) ;
#207 = ORIENTED_EDGE ( 'NONE', *, *, #157, .F. ) ;
#208 = CARTESIAN_POINT ( 'NONE',  ( 0.000000000000000000, 0.000000000000000000, 5.000000000000000000 ) ) ;
#209 = DIRECTION ( 'NONE',  ( 0.000000000000000000, 0.000000000000000000, 1.000000000000000000 ) ) ;
#210 = DIRECTION ( 'NONE',  ( -1.000000000000000000, 0.000000000000000000, 0.000000000000000000 ) ) ;
#211 = ORIENTED_EDGE ( 'NONE', *, *, #144, .F. ) ;
#212 = ADVANCED_FACE ( 'NONE', ( #12 ), #73, .F. ) ;
#213 = AXIS2_PLACEMENT_3D ( 'NONE', #10, #58, #200 ) ;
#214 = CARTESIAN_POINT ( 'NONE',  ( -5.250000000000000888, 0.000000000000000000, 5.200000000000009948 ) ) ;
#215 = LINE ( 'NONE', #197, #267 ) ;
#216 = DIRECTION ( 'NONE',  ( 1.000000000000000000, 0.000000000000000000, 0.000000000000000000 ) ) ;
#217 = CARTESIAN_POINT ( 'NONE',  ( 0.000000000000000000, 0.000000000000000000, 5.000000000000000000 ) ) ;
#218 = CARTESIAN_POINT ( 'NONE',  ( 8.000000000000000000, 9.797174393178825657E-16, 0.000000000000000000 ) ) ;
#219 = LINE ( 'NONE', #289, #14 ) ;
#220 = APPROVAL ( #206, 'NEURÈENÝ' ) ;
#221 = LOCAL_TIME ( 11, 50, 48.00000000000000000, #67 ) ;
#222 = APPROVAL_ROLE ( '' ) ;
#223 = VERTEX_POINT ( 'NONE', #294 ) ;
#224 = PERSON_AND_ORGANIZATION ( #163, #256 ) ;
#225 = DATE_AND_TIME ( #138, #130 ) ;
#226 = VERTEX_POINT ( 'NONE', #270 ) ;
#227 = PERSON_AND_ORGANIZATION_ROLE ( 'design_owner' ) ;
#228 = ORIENTED_EDGE ( 'NONE', *, *, #133, .T. ) ;
#229 = AXIS2_PLACEMENT_3D ( 'NONE', #246, #268, #202 ) ;
#230 = COORDINATED_UNIVERSAL_TIME_OFFSET ( 1, 0, .AHEAD. ) ;
#231 = ORIENTED_EDGE ( 'NONE', *, *, #168, .T. ) ;
#232 = EDGE_CURVE ( 'NONE', #3, #248, #234, .T. ) ;
#233 = FACE_OUTER_BOUND ( 'NONE', #21, .T. ) ;
#234 = CIRCLE ( 'NONE', #95, 0.1999999999999996503 ) ;
#235 = DIRECTION ( 'NONE',  ( -0.000000000000000000, -0.000000000000000000, -1.000000000000000000 ) ) ;
#236 = DIRECTION ( 'NONE',  ( 1.000000000000000000, 0.000000000000000000, 0.000000000000000000 ) ) ;
#237 = MANIFOLD_SOLID_BREP ( 'Zaoblit1', #271 ) ;
#238 = PLANE ( 'NONE',  #306 ) ;
#239 = CC_DESIGN_APPROVAL ( #245, ( #203 ) ) ;
#240 = CARTESIAN_POINT ( 'NONE',  ( -5.450000000000001066, 6.674325055353076224E-16, 5.000000000000005329 ) ) ;
#241 = ADVANCED_FACE ( 'NONE', ( #99 ), #33, .T. ) ;
#242 = CARTESIAN_POINT ( 'NONE',  ( -5.450000000000001066, 6.674325055353076224E-16, 5.200000000000009948 ) ) ;
#243 = CIRCLE ( 'NONE', #186, 5.250000000000000888 ) ;
#244 = DIRECTION ( 'NONE',  ( 1.000000000000000000, 0.000000000000000000, 0.000000000000000000 ) ) ;
#245 = APPROVAL ( #204, 'NEURÈENÝ' ) ;
#246 = CARTESIAN_POINT ( 'NONE',  ( 0.000000000000000000, 0.000000000000000000, 5.200000000000009948 ) ) ;
#247 = PERSON_AND_ORGANIZATION_ROLE ( 'design_supplier' ) ;
#248 = VERTEX_POINT ( 'NONE', #240 ) ;
#249 = PERSON_AND_ORGANIZATION_ROLE ( 'creator' ) ;
#250 = ORIENTED_EDGE ( 'NONE', *, *, #201, .F. ) ;
#251 = APPROVAL_STATUS ( 'not_yet_approved' ) ;
#252 = ORIENTED_EDGE ( 'NONE', *, *, #139, .T. ) ;
#253 = CC_DESIGN_PERSON_AND_ORGANIZATION_ASSIGNMENT ( #161, #249, ( #299 ) ) ;
#254 = PERSON_AND_ORGANIZATION ( #163, #256 ) ;
#255 = CIRCLE ( 'NONE', #117, 8.000000000000000000 ) ;
#256 = ORGANIZATION ( 'NEURÈENÝ', 'NEURÈENÝ', '' ) ;
#257 = EDGE_LOOP ( 'NONE', ( #228, #38 ) ) ;
#258 = CARTESIAN_POINT ( 'NONE',  ( 0.000000000000000000, 0.000000000000000000, 0.000000000000000000 ) ) ;
#259 = ORIENTED_EDGE ( 'NONE', *, *, #139, .F. ) ;
#260 = DIRECTION ( 'NONE',  ( 0.000000000000000000, 0.000000000000000000, 1.000000000000000000 ) ) ;
#261 = CIRCLE ( 'NONE', #229, 5.250000000000000888 ) ;
#262 = EDGE_LOOP ( 'NONE', ( #211, #180, #231, #252 ) ) ;
#263 = APPROVAL_DATE_TIME ( #304, #245 ) ;
#264 = DIRECTION ( 'NONE',  ( 0.000000000000000000, 0.000000000000000000, -1.000000000000000000 ) ) ;
#265 = DIRECTION ( 'NONE',  ( -1.000000000000000000, 0.000000000000000000, 0.000000000000000000 ) ) ;
#266 = CIRCLE ( 'NONE', #128, 5.450000000000001066 ) ;
#267 = VECTOR ( 'NONE', #13, 1000.000000000000000 ) ;
#268 = DIRECTION ( 'NONE',  ( 0.000000000000000000, 0.000000000000000000, 1.000000000000000000 ) ) ;
#269 = DIRECTION ( 'NONE',  ( 1.000000000000000000, 0.000000000000000000, 0.000000000000000000 ) ) ;
#270 = CARTESIAN_POINT ( 'NONE',  ( 5.250000000000000888, 6.429395695523605139E-16, 165.0000000000000000 ) ) ;
#271 = CLOSED_SHELL ( 'NONE', ( #212, #241, #36, #287, #303, #89, #45, #70, #281 ) ) ;
#272 = EDGE_CURVE ( 'NONE', #226, #48, #19, .T. ) ;
#273 = VECTOR ( 'NONE', #78, 1000.000000000000000 ) ;
#274 = TOROIDAL_SURFACE ( 'NONE', #63, 5.450000000000001066, 0.2000000000000000111 ) ;
#275 = DIRECTION ( 'NONE',  ( 1.000000000000000000, 0.000000000000000000, 0.000000000000000000 ) ) ;
#276 = AXIS2_PLACEMENT_3D ( 'NONE', #173, #149, #216 ) ;
#277 = CC_DESIGN_PERSON_AND_ORGANIZATION_ASSIGNMENT ( #159, #227, ( #53 ) ) ;
#278 = DIRECTION ( 'NONE',  ( 1.000000000000000000, 0.000000000000000000, 0.000000000000000000 ) ) ;
#279 = ORIENTED_EDGE ( 'NONE', *, *, #49, .F. ) ;
#280 = APPROVAL_ROLE ( '' ) ;
#281 = ADVANCED_FACE ( 'NONE', ( #52 ), #274, .F. ) ;
#282 = CC_DESIGN_SECURITY_CLASSIFICATION ( #203, ( #299 ) ) ;
#283 = ORIENTED_EDGE ( 'NONE', *, *, #144, .T. ) ;
#284 = DIRECTION ( 'NONE',  ( -0.000000000000000000, -0.000000000000000000, -1.000000000000000000 ) ) ;
#285 = CARTESIAN_POINT ( 'NONE',  ( 0.000000000000000000, 0.000000000000000000, 165.0000000000000000 ) ) ;
#286 = CYLINDRICAL_SURFACE ( 'NONE', #86, 5.250000000000000888 ) ;
#287 = ADVANCED_FACE ( 'NONE', ( #11 ), #172, .T. ) ;
#288 = CARTESIAN_POINT ( 'NONE',  ( 5.250000000000000888, 6.429395695523605139E-16, 5.200000000000009948 ) ) ;
#289 = CARTESIAN_POINT ( 'NONE',  ( 5.250000000000000888, 6.429395695523605139E-16, 165.0000000000000000 ) ) ;
#290 = CC_DESIGN_PERSON_AND_ORGANIZATION_ASSIGNMENT ( #134, #62, ( #80 ) ) ;
#291 = CARTESIAN_POINT ( 'NONE',  ( 8.000000000000000000, 9.797174393178825657E-16, 5.000000000000000000 ) ) ;
#292 = CARTESIAN_POINT ( 'NONE',  ( 0.000000000000000000, 0.000000000000000000, 165.0000000000000000 ) ) ;
#293 = DIRECTION ( 'NONE',  ( -0.000000000000000000, -0.000000000000000000, -1.000000000000000000 ) ) ;
#294 = CARTESIAN_POINT ( 'NONE',  ( 8.000000000000000000, 9.797174393178825657E-16, 5.000000000000000000 ) ) ;
#295 = LOCAL_TIME ( 11, 50, 48.00000000000000000, #155 ) ;
#296 = EDGE_CURVE ( 'NONE', #48, #226, #243, .T. ) ;
#297 = CALENDAR_DATE ( 2022, 7, 7 ) ;
#298 = AXIS2_PLACEMENT_3D ( 'NONE', #116, #4, #264 ) ;
#299 = PRODUCT_DEFINITION_FORMATION_WITH_SPECIFIED_SOURCE ( 'LIBOVOLNÝ', '', #53, .NOT_KNOWN. ) ;
#300 = APPROVAL_DATE_TIME ( #65, #7 ) ;
#301 = VERTEX_POINT ( 'NONE', #55 ) ;
#302 = PERSON_AND_ORGANIZATION ( #163, #256 ) ;
#303 = ADVANCED_FACE ( 'NONE', ( #150, #126 ), #31, .T. ) ;
#304 = DATE_AND_TIME ( #297, #221 ) ;
#305 = ORIENTED_EDGE ( 'NONE', *, *, #121, .T. ) ;
#306 = AXIS2_PLACEMENT_3D ( 'NONE', #285, #28, #165 ) ;
#307 = CARTESIAN_POINT ( 'NONE',  ( -8.000000000000000000, 0.000000000000000000, 0.000000000000000000 ) ) ;
ENDSEC;
END-ISO-10303-21;
