ISO-10303-21;
HEADER;
FILE_DESCRIPTION (( 'STEP AP203' ),
    '1' );
FILE_NAME ('4f37.STEP',
    '2022-07-07T10:29:22',
    ( '' ),
    ( '' ),
    'SwSTEP 2.0',
    'SolidWorks 2019',
    '' );
FILE_SCHEMA (( 'CONFIG_CONTROL_DESIGN' ));
ENDSEC;

DATA;
#1 = DIRECTION ( 'NONE',  ( -1.000000000000000000, 1.224646799147354686E-16, 0.000000000000000000 ) ) ;
#2 = CARTESIAN_POINT ( 'NONE',  ( 0.000000000000000000, 0.000000000000000000, 0.000000000000000000 ) ) ;
#3 = TOROIDAL_SURFACE ( 'NONE', #4, 1.800000000000000266, 0.2000000000000000111 ) ;
#4 = AXIS2_PLACEMENT_3D ( 'NONE', #236, #211, #142 ) ;
#5 = AXIS2_PLACEMENT_3D ( 'NONE', #20, #137, #231 ) ;
#6 = UNCERTAINTY_MEASURE_WITH_UNIT (LENGTH_MEASURE( 1.000000000000000082E-05 ), #57, 'distance_accuracy_value', 'NONE');
#7 = ORIENTED_EDGE ( 'NONE', *, *, #19, .F. ) ;
#8 =( NAMED_UNIT ( * ) SI_UNIT ( $, .STERADIAN. ) SOLID_ANGLE_UNIT ( ) );
#9 = ORIENTED_EDGE ( 'NONE', *, *, #210, .F. ) ;
#10 = AXIS2_PLACEMENT_3D ( 'NONE', #91, #14, #256 ) ;
#11 = EDGE_CURVE ( 'NONE', #61, #111, #206, .T. ) ;
#12 = DIRECTION ( 'NONE',  ( -0.000000000000000000, -0.000000000000000000, -1.000000000000000000 ) ) ;
#13 = APPLICATION_CONTEXT ( 'configuration controlled 3d designs of mechanical parts and assemblies' ) ;
#14 = DIRECTION ( 'NONE',  ( -0.000000000000000000, -0.000000000000000000, -1.000000000000000000 ) ) ;
#15 = EDGE_LOOP ( 'NONE', ( #37, #109, #159, #266 ) ) ;
#16 = CYLINDRICAL_SURFACE ( 'NONE', #224, 1.600000000000000089 ) ;
#17 = CARTESIAN_POINT ( 'NONE',  ( -1.600000000000000089, 0.000000000000000000, 318.0000000000000000 ) ) ;
#18 = CARTESIAN_POINT ( 'NONE',  ( 0.000000000000000000, 0.000000000000000000, 318.0000000000000000 ) ) ;
#19 = EDGE_CURVE ( 'NONE', #205, #272, #297, .T. ) ;
#20 = CARTESIAN_POINT ( 'NONE',  ( 0.000000000000000000, 0.000000000000000000, 3.000000000000000000 ) ) ;
#21 = CIRCLE ( 'NONE', #234, 1.600000000000000089 ) ;
#22 = PRODUCT_DEFINITION_FORMATION_WITH_SPECIFIED_SOURCE ( 'LIBOVOLNÝ', '', #124, .NOT_KNOWN. ) ;
#23 = CARTESIAN_POINT ( 'NONE',  ( 1.600000000000000089, 1.959434878635765230E-16, 318.0000000000000000 ) ) ;
#24 = DIRECTION ( 'NONE',  ( 1.000000000000000000, 0.000000000000000000, 0.000000000000000000 ) ) ;
#25 = CARTESIAN_POINT ( 'NONE',  ( 0.000000000000000000, 0.000000000000000000, 0.000000000000000000 ) ) ;
#26 = PERSON_AND_ORGANIZATION_ROLE ( 'design_owner' ) ;
#27 = ORIENTED_EDGE ( 'NONE', *, *, #238, .T. ) ;
#28 = APPROVAL_STATUS ( 'not_yet_approved' ) ;
#29 = EDGE_LOOP ( 'NONE', ( #227, #274, #87, #55 ) ) ;
#30 = DATE_AND_TIME ( #244, #193 ) ;
#31 = MANIFOLD_SOLID_BREP ( 'Zaoblit1', #77 ) ;
#32 = APPLICATION_PROTOCOL_DEFINITION ( 'international standard', 'config_control_design', 1994, #13 ) ;
#33 = CALENDAR_DATE ( 2022, 7, 7 ) ;
#34 = EDGE_LOOP ( 'NONE', ( #246, #147, #255, #136 ) ) ;
#35 = DIRECTION ( 'NONE',  ( -1.000000000000000000, 0.000000000000000000, 0.000000000000000000 ) ) ;
#36 = LOCAL_TIME ( 12, 29, 22.00000000000000000, #273 ) ;
#37 = ORIENTED_EDGE ( 'NONE', *, *, #100, .F. ) ;
#38 = VERTEX_POINT ( 'NONE', #230 ) ;
#39 = CYLINDRICAL_SURFACE ( 'NONE', #301, 1.600000000000000089 ) ;
#40 = AXIS2_PLACEMENT_3D ( 'NONE', #259, #214, #191 ) ;
#41 = AXIS2_PLACEMENT_3D ( 'NONE', #18, #306, #232 ) ;
#42 = DIRECTION ( 'NONE',  ( 1.000000000000000000, 0.000000000000000000, 0.000000000000000000 ) ) ;
#43 = ADVANCED_FACE ( 'NONE', ( #186 ), #225, .T. ) ;
#44 = CARTESIAN_POINT ( 'NONE',  ( 1.800000000000000266, 0.000000000000000000, 3.199999999999980638 ) ) ;
#45 = LINE ( 'NONE', #47, #68 ) ;
#46 = APPROVAL_PERSON_ORGANIZATION ( #104, #56, #292 ) ;
#47 = CARTESIAN_POINT ( 'NONE',  ( 3.000000000000000444, 3.673940397442060361E-16, 3.000000000000000000 ) ) ;
#48 = CARTESIAN_POINT ( 'NONE',  ( 0.000000000000000000, 0.000000000000000000, 318.0000000000000000 ) ) ;
#49 = PERSON_AND_ORGANIZATION_ROLE ( 'creator' ) ;
#50 = VECTOR ( 'NONE', #251, 1000.000000000000000 ) ;
#51 = PERSON_AND_ORGANIZATION ( #67, #145 ) ;
#52 = VERTEX_POINT ( 'NONE', #226 ) ;
#53 = COORDINATED_UNIVERSAL_TIME_OFFSET ( 1, 0, .AHEAD. ) ;
#54 = CC_DESIGN_PERSON_AND_ORGANIZATION_ASSIGNMENT ( #295, #26, ( #124 ) ) ;
#55 = ORIENTED_EDGE ( 'NONE', *, *, #83, .F. ) ;
#56 = APPROVAL ( #197, 'NEURÈENÝ' ) ;
#57 =( LENGTH_UNIT ( ) NAMED_UNIT ( * ) SI_UNIT ( .MILLI., .METRE. ) );
#58 = EDGE_LOOP ( 'NONE', ( #170, #85, #82, #242 ) ) ;
#59 = CIRCLE ( 'NONE', #5, 3.000000000000000444 ) ;
#60 = DIRECTION ( 'NONE',  ( 0.000000000000000000, 0.000000000000000000, 1.000000000000000000 ) ) ;
#61 = VERTEX_POINT ( 'NONE', #17 ) ;
#62 = ORIENTED_EDGE ( 'NONE', *, *, #188, .T. ) ;
#63 = APPROVAL ( #265, 'NEURÈENÝ' ) ;
#64 = LINE ( 'NONE', #180, #78 ) ;
#65 = DIRECTION ( 'NONE',  ( -0.000000000000000000, -0.000000000000000000, -1.000000000000000000 ) ) ;
#66 = DIRECTION ( 'NONE',  ( 0.000000000000000000, 0.000000000000000000, 1.000000000000000000 ) ) ;
#67 = PERSON ( 'NEURÈENÝ', 'NEURÈENÝ', 'NEURÈENÝ', ('NEURÈENÝ'), ('NEURÈENÝ'), ('NEURÈENÝ') ) ;
#68 = VECTOR ( 'NONE', #237, 1000.000000000000000 ) ;
#69 = DIRECTION ( 'NONE',  ( 1.000000000000000000, 0.000000000000000000, 0.000000000000000000 ) ) ;
#70 = DIRECTION ( 'NONE',  ( 1.000000000000000000, 0.000000000000000000, 0.000000000000000000 ) ) ;
#71 = DIRECTION ( 'NONE',  ( 0.000000000000000000, 0.000000000000000000, 1.000000000000000000 ) ) ;
#72 = CIRCLE ( 'NONE', #207, 1.600000000000000089 ) ;
#73 = DIRECTION ( 'NONE',  ( 0.000000000000000000, 0.000000000000000000, 1.000000000000000000 ) ) ;
#74 = PERSON_AND_ORGANIZATION ( #67, #145 ) ;
#75 = ADVANCED_FACE ( 'NONE', ( #302 ), #16, .T. ) ;
#76 = COORDINATED_UNIVERSAL_TIME_OFFSET ( 1, 0, .AHEAD. ) ;
#77 = CLOSED_SHELL ( 'NONE', ( #174, #75, #43, #110, #222, #139, #88, #264, #157 ) ) ;
#78 = VECTOR ( 'NONE', #12, 1000.000000000000000 ) ;
#79 = APPLICATION_PROTOCOL_DEFINITION ( 'international standard', 'config_control_design', 1994, #262 ) ;
#80 = ORIENTED_EDGE ( 'NONE', *, *, #298, .T. ) ;
#81 = PERSON_AND_ORGANIZATION ( #67, #145 ) ;
#82 = ORIENTED_EDGE ( 'NONE', *, *, #83, .T. ) ;
#83 = EDGE_CURVE ( 'NONE', #52, #133, #208, .T. ) ;
#84 = APPROVAL_ROLE ( '' ) ;
#85 = ORIENTED_EDGE ( 'NONE', *, *, #280, .F. ) ;
#86 = AXIS2_PLACEMENT_3D ( 'NONE', #296, #195, #248 ) ;
#87 = ORIENTED_EDGE ( 'NONE', *, *, #181, .T. ) ;
#88 = ADVANCED_FACE ( 'NONE', ( #114 ), #39, .T. ) ;
#89 = CARTESIAN_POINT ( 'NONE',  ( 0.000000000000000000, 0.000000000000000000, 3.199999999999980638 ) ) ;
#90 = APPROVAL_DATE_TIME ( #30, #56 ) ;
#91 = CARTESIAN_POINT ( 'NONE',  ( 0.000000000000000000, 0.000000000000000000, 3.000000000000000000 ) ) ;
#92 = DIRECTION ( 'NONE',  ( -1.000000000000000000, 0.000000000000000000, 0.000000000000000000 ) ) ;
#93 = EDGE_CURVE ( 'NONE', #168, #111, #95, .T. ) ;
#94 = CARTESIAN_POINT ( 'NONE',  ( -1.800000000000000266, 2.204364238465236069E-16, 3.199999999999980638 ) ) ;
#95 = CIRCLE ( 'NONE', #239, 1.600000000000000089 ) ;
#96 = FACE_BOUND ( 'NONE', #196, .T. ) ;
#97 = DIRECTION ( 'NONE',  ( 0.000000000000000000, 0.000000000000000000, -1.000000000000000000 ) ) ;
#98 = APPROVAL ( #28, 'NEURÈENÝ' ) ;
#99 = PLANE ( 'NONE',  #41 ) ;
#100 = EDGE_CURVE ( 'NONE', #115, #168, #64, .T. ) ;
#101 = DIRECTION ( 'NONE',  ( 1.224646799147353207E-16, 1.000000000000000000, -0.000000000000000000 ) ) ;
#102 = APPROVAL_DATE_TIME ( #290, #63 ) ;
#103 = ORIENTED_EDGE ( 'NONE', *, *, #188, .F. ) ;
#104 = PERSON_AND_ORGANIZATION ( #67, #145 ) ;
#105 = CIRCLE ( 'NONE', #303, 0.1999999999999998723 ) ;
#106 = APPROVAL_PERSON_ORGANIZATION ( #74, #63, #271 ) ;
#107 = EDGE_CURVE ( 'NONE', #272, #205, #112, .T. ) ;
#108 = PERSON_AND_ORGANIZATION ( #67, #145 ) ;
#109 = ORIENTED_EDGE ( 'NONE', *, *, #238, .F. ) ;
#110 = ADVANCED_FACE ( 'NONE', ( #299 ), #179, .T. ) ;
#111 = VERTEX_POINT ( 'NONE', #122 ) ;
#112 = CIRCLE ( 'NONE', #229, 1.800000000000000266 ) ;
#113 = DIRECTION ( 'NONE',  ( 1.000000000000000000, 0.000000000000000000, 0.000000000000000000 ) ) ;
#114 = FACE_OUTER_BOUND ( 'NONE', #15, .T. ) ;
#115 = VERTEX_POINT ( 'NONE', #23 ) ;
#116 = CC_DESIGN_DATE_AND_TIME_ASSIGNMENT ( #218, #148, ( #118 ) ) ;
#117 = DIRECTION ( 'NONE',  ( 1.000000000000000000, 0.000000000000000000, 0.000000000000000000 ) ) ;
#118 = SECURITY_CLASSIFICATION ( '', '', #268 ) ;
#119 = ORIENTED_EDGE ( 'NONE', *, *, #181, .F. ) ;
#120 = CARTESIAN_POINT ( 'NONE',  ( 0.000000000000000000, 0.000000000000000000, 0.000000000000000000 ) ) ;
#121 = CARTESIAN_POINT ( 'NONE',  ( 1.600000000000000089, 1.959434878635765230E-16, 3.199999999999980638 ) ) ;
#122 = CARTESIAN_POINT ( 'NONE',  ( -1.600000000000000089, 0.000000000000000000, 3.199999999999980638 ) ) ;
#123 = FACE_OUTER_BOUND ( 'NONE', #134, .T. ) ;
#124 = PRODUCT ( '4f37', '4f37', '', ( #221 ) ) ;
#125 = DIRECTION ( 'NONE',  ( 0.000000000000000000, 0.000000000000000000, 1.000000000000000000 ) ) ;
#126 = LOCAL_TIME ( 12, 29, 22.00000000000000000, #76 ) ;
#127 = ADVANCED_BREP_SHAPE_REPRESENTATION ( '4f37', ( #31, #86 ), #171 ) ;
#128 = DATE_AND_TIME ( #172, #36 ) ;
#129 = CALENDAR_DATE ( 2022, 7, 7 ) ;
#130 = PERSON_AND_ORGANIZATION_ROLE ( 'classification_officer' ) ;
#131 = APPROVAL_DATE_TIME ( #149, #98 ) ;
#132 = VERTEX_POINT ( 'NONE', #284 ) ;
#133 = VERTEX_POINT ( 'NONE', #141 ) ;
#134 = EDGE_LOOP ( 'NONE', ( #279, #269 ) ) ;
#135 = CC_DESIGN_PERSON_AND_ORGANIZATION_ASSIGNMENT ( #51, #130, ( #118 ) ) ;
#136 = ORIENTED_EDGE ( 'NONE', *, *, #298, .F. ) ;
#137 = DIRECTION ( 'NONE',  ( 0.000000000000000000, 0.000000000000000000, 1.000000000000000000 ) ) ;
#138 = DIRECTION ( 'NONE',  ( 0.000000000000000000, -1.000000000000000000, 0.000000000000000000 ) ) ;
#139 = ADVANCED_FACE ( 'NONE', ( #212 ), #287, .F. ) ;
#140 = CARTESIAN_POINT ( 'NONE',  ( 0.000000000000000000, 0.000000000000000000, 3.199999999999980638 ) ) ;
#141 = CARTESIAN_POINT ( 'NONE',  ( -3.000000000000000444, 0.000000000000000000, 0.000000000000000000 ) ) ;
#142 = DIRECTION ( 'NONE',  ( 1.000000000000000000, 0.000000000000000000, 0.000000000000000000 ) ) ;
#143 = PERSON_AND_ORGANIZATION ( #67, #145 ) ;
#144 = ORIENTED_EDGE ( 'NONE', *, *, #100, .T. ) ;
#145 = ORGANIZATION ( 'NEURÈENÝ', 'NEURÈENÝ', '' ) ;
#146 = COORDINATED_UNIVERSAL_TIME_OFFSET ( 1, 0, .AHEAD. ) ;
#147 = ORIENTED_EDGE ( 'NONE', *, *, #210, .T. ) ;
#148 = DATE_TIME_ROLE ( 'classification_date' ) ;
#149 = DATE_AND_TIME ( #167, #126 ) ;
#150 =( NAMED_UNIT ( * ) PLANE_ANGLE_UNIT ( ) SI_UNIT ( $, .RADIAN. ) );
#151 = LOCAL_TIME ( 12, 29, 22.00000000000000000, #216 ) ;
#152 = DIRECTION ( 'NONE',  ( -0.000000000000000000, -0.000000000000000000, -1.000000000000000000 ) ) ;
#153 = CARTESIAN_POINT ( 'NONE',  ( -1.600000000000000089, 0.000000000000000000, 318.0000000000000000 ) ) ;
#154 = AXIS2_PLACEMENT_3D ( 'NONE', #48, #125, #24 ) ;
#155 = EDGE_LOOP ( 'NONE', ( #103, #144, #223, #243 ) ) ;
#156 = LOCAL_TIME ( 12, 29, 22.00000000000000000, #146 ) ;
#157 = ADVANCED_FACE ( 'NONE', ( #160 ), #3, .F. ) ;
#158 = DIRECTION ( 'NONE',  ( -0.000000000000000000, -0.000000000000000000, -1.000000000000000000 ) ) ;
#159 = ORIENTED_EDGE ( 'NONE', *, *, #11, .T. ) ;
#160 = FACE_OUTER_BOUND ( 'NONE', #245, .T. ) ;
#161 = CC_DESIGN_APPROVAL ( #98, ( #164 ) ) ;
#162 = PRODUCT_RELATED_PRODUCT_CATEGORY ( 'detail', '', ( #124 ) ) ;
#163 = FACE_OUTER_BOUND ( 'NONE', #254, .T. ) ;
#164 = PRODUCT_DEFINITION ( 'NEZNÁMÝ', '', #22, #267 ) ;
#165 = CC_DESIGN_APPROVAL ( #56, ( #118 ) ) ;
#166 = DIRECTION ( 'NONE',  ( 1.000000000000000000, 0.000000000000000000, -0.000000000000000000 ) ) ;
#167 = CALENDAR_DATE ( 2022, 7, 7 ) ;
#168 = VERTEX_POINT ( 'NONE', #121 ) ;
#169 = AXIS2_PLACEMENT_3D ( 'NONE', #25, #73, #166 ) ;
#170 = ORIENTED_EDGE ( 'NONE', *, *, #185, .F. ) ;
#171 =( GEOMETRIC_REPRESENTATION_CONTEXT ( 3 ) GLOBAL_UNCERTAINTY_ASSIGNED_CONTEXT ( ( #6 ) ) GLOBAL_UNIT_ASSIGNED_CONTEXT ( ( #57, #150, #8 ) ) REPRESENTATION_CONTEXT ( 'NONE', 'WORKASPACE' ) );
#172 = CALENDAR_DATE ( 2022, 7, 7 ) ;
#173 = ORIENTED_EDGE ( 'NONE', *, *, #241, .F. ) ;
#174 = ADVANCED_FACE ( 'NONE', ( #263 ), #177, .F. ) ;
#175 = EDGE_LOOP ( 'NONE', ( #173, #119 ) ) ;
#176 = AXIS2_PLACEMENT_3D ( 'NONE', #277, #304, #92 ) ;
#177 = TOROIDAL_SURFACE ( 'NONE', #40, 1.800000000000000266, 0.2000000000000000111 ) ;
#178 = DIRECTION ( 'NONE',  ( -0.000000000000000000, -0.000000000000000000, -1.000000000000000000 ) ) ;
#179 = CYLINDRICAL_SURFACE ( 'NONE', #176, 3.000000000000000444 ) ;
#180 = CARTESIAN_POINT ( 'NONE',  ( 1.600000000000000089, 1.959434878635765230E-16, 318.0000000000000000 ) ) ;
#181 = EDGE_CURVE ( 'NONE', #38, #133, #203, .T. ) ;
#182 = CC_DESIGN_DATE_AND_TIME_ASSIGNMENT ( #128, #289, ( #164 ) ) ;
#183 = CC_DESIGN_APPROVAL ( #63, ( #22 ) ) ;
#184 = DIRECTION ( 'NONE',  ( 1.000000000000000000, 0.000000000000000000, 0.000000000000000000 ) ) ;
#185 = EDGE_CURVE ( 'NONE', #132, #38, #45, .T. ) ;
#186 = FACE_OUTER_BOUND ( 'NONE', #29, .T. ) ;
#187 = PLANE ( 'NONE',  #213 ) ;
#188 = EDGE_CURVE ( 'NONE', #115, #61, #293, .T. ) ;
#189 = CARTESIAN_POINT ( 'NONE',  ( 1.800000000000000266, 0.000000000000000000, 2.999999999999990674 ) ) ;
#190 = DIRECTION ( 'NONE',  ( 1.000000000000000000, 0.000000000000000000, -0.000000000000000000 ) ) ;
#191 = DIRECTION ( 'NONE',  ( 1.000000000000000000, 0.000000000000000000, 0.000000000000000000 ) ) ;
#192 = DIRECTION ( 'NONE',  ( 0.000000000000000000, 0.000000000000000000, 1.000000000000000000 ) ) ;
#193 = LOCAL_TIME ( 12, 29, 22.00000000000000000, #53 ) ;
#194 = PERSON_AND_ORGANIZATION_ROLE ( 'creator' ) ;
#195 = DIRECTION ( 'NONE',  ( 0.000000000000000000, 0.000000000000000000, 1.000000000000000000 ) ) ;
#196 = EDGE_LOOP ( 'NONE', ( #202, #252 ) ) ;
#197 = APPROVAL_STATUS ( 'not_yet_approved' ) ;
#198 = CIRCLE ( 'NONE', #288, 3.000000000000000444 ) ;
#199 = CIRCLE ( 'NONE', #247, 3.000000000000000444 ) ;
#200 = EDGE_CURVE ( 'NONE', #111, #168, #21, .T. ) ;
#201 = AXIS2_PLACEMENT_3D ( 'NONE', #228, #65, #117 ) ;
#202 = ORIENTED_EDGE ( 'NONE', *, *, #107, .T. ) ;
#203 = CIRCLE ( 'NONE', #270, 3.000000000000000444 ) ;
#204 = CARTESIAN_POINT ( 'NONE',  ( 0.000000000000000000, 0.000000000000000000, 318.0000000000000000 ) ) ;
#205 = VERTEX_POINT ( 'NONE', #307 ) ;
#206 = LINE ( 'NONE', #153, #283 ) ;
#207 = AXIS2_PLACEMENT_3D ( 'NONE', #233, #215, #42 ) ;
#208 = LINE ( 'NONE', #209, #50 ) ;
#209 = CARTESIAN_POINT ( 'NONE',  ( -3.000000000000000444, 0.000000000000000000, 3.000000000000000000 ) ) ;
#210 = EDGE_CURVE ( 'NONE', #111, #205, #105, .T. ) ;
#211 = DIRECTION ( 'NONE',  ( 0.000000000000000000, 0.000000000000000000, 1.000000000000000000 ) ) ;
#212 = FACE_OUTER_BOUND ( 'NONE', #175, .T. ) ;
#213 = AXIS2_PLACEMENT_3D ( 'NONE', #282, #66, #190 ) ;
#214 = DIRECTION ( 'NONE',  ( 0.000000000000000000, 0.000000000000000000, 1.000000000000000000 ) ) ;
#215 = DIRECTION ( 'NONE',  ( 0.000000000000000000, 0.000000000000000000, 1.000000000000000000 ) ) ;
#216 = COORDINATED_UNIVERSAL_TIME_OFFSET ( 1, 0, .AHEAD. ) ;
#217 = AXIS2_PLACEMENT_3D ( 'NONE', #44, #138, #97 ) ;
#218 = DATE_AND_TIME ( #129, #156 ) ;
#219 = PERSON_AND_ORGANIZATION ( #67, #145 ) ;
#220 = CC_DESIGN_SECURITY_CLASSIFICATION ( #118, ( #22 ) ) ;
#221 = MECHANICAL_CONTEXT ( 'NONE', #13, 'mechanical' ) ;
#222 = ADVANCED_FACE ( 'NONE', ( #96, #123 ), #187, .T. ) ;
#223 = ORIENTED_EDGE ( 'NONE', *, *, #93, .T. ) ;
#224 = AXIS2_PLACEMENT_3D ( 'NONE', #204, #158, #35 ) ;
#225 = CYLINDRICAL_SURFACE ( 'NONE', #10, 3.000000000000000444 ) ;
#226 = CARTESIAN_POINT ( 'NONE',  ( -3.000000000000000444, 0.000000000000000000, 3.000000000000000000 ) ) ;
#227 = ORIENTED_EDGE ( 'NONE', *, *, #257, .F. ) ;
#228 = CARTESIAN_POINT ( 'NONE',  ( 0.000000000000000000, 0.000000000000000000, 3.000000000000000000 ) ) ;
#229 = AXIS2_PLACEMENT_3D ( 'NONE', #278, #152, #113 ) ;
#230 = CARTESIAN_POINT ( 'NONE',  ( 3.000000000000000444, 3.673940397442060361E-16, 0.000000000000000000 ) ) ;
#231 = DIRECTION ( 'NONE',  ( 1.000000000000000000, 0.000000000000000000, 0.000000000000000000 ) ) ;
#232 = DIRECTION ( 'NONE',  ( 1.000000000000000000, 0.000000000000000000, -0.000000000000000000 ) ) ;
#233 = CARTESIAN_POINT ( 'NONE',  ( 0.000000000000000000, 0.000000000000000000, 318.0000000000000000 ) ) ;
#234 = AXIS2_PLACEMENT_3D ( 'NONE', #140, #71, #305 ) ;
#235 = CIRCLE ( 'NONE', #217, 0.2000000000000000944 ) ;
#236 = CARTESIAN_POINT ( 'NONE',  ( 0.000000000000000000, 0.000000000000000000, 3.199999999999980638 ) ) ;
#237 = DIRECTION ( 'NONE',  ( -0.000000000000000000, -0.000000000000000000, -1.000000000000000000 ) ) ;
#238 = EDGE_CURVE ( 'NONE', #61, #115, #72, .T. ) ;
#239 = AXIS2_PLACEMENT_3D ( 'NONE', #89, #60, #184 ) ;
#240 = PERSON_AND_ORGANIZATION_ROLE ( 'design_supplier' ) ;
#241 = EDGE_CURVE ( 'NONE', #133, #38, #198, .T. ) ;
#242 = ORIENTED_EDGE ( 'NONE', *, *, #241, .T. ) ;
#243 = ORIENTED_EDGE ( 'NONE', *, *, #11, .F. ) ;
#244 = CALENDAR_DATE ( 2022, 7, 7 ) ;
#245 = EDGE_LOOP ( 'NONE', ( #9, #291, #80, #7 ) ) ;
#246 = ORIENTED_EDGE ( 'NONE', *, *, #200, .F. ) ;
#247 = AXIS2_PLACEMENT_3D ( 'NONE', #258, #285, #70 ) ;
#248 = DIRECTION ( 'NONE',  ( 1.000000000000000000, 0.000000000000000000, 0.000000000000000000 ) ) ;
#249 = PRODUCT_DEFINITION_SHAPE ( 'NONE', 'NONE',  #164 ) ;
#250 = SHAPE_DEFINITION_REPRESENTATION ( #249, #127 ) ;
#251 = DIRECTION ( 'NONE',  ( -0.000000000000000000, -0.000000000000000000, -1.000000000000000000 ) ) ;
#252 = ORIENTED_EDGE ( 'NONE', *, *, #19, .T. ) ;
#253 = APPROVAL_PERSON_ORGANIZATION ( #219, #98, #84 ) ;
#254 = EDGE_LOOP ( 'NONE', ( #27, #62 ) ) ;
#255 = ORIENTED_EDGE ( 'NONE', *, *, #107, .F. ) ;
#256 = DIRECTION ( 'NONE',  ( -1.000000000000000000, 0.000000000000000000, 0.000000000000000000 ) ) ;
#257 = EDGE_CURVE ( 'NONE', #132, #52, #59, .T. ) ;
#258 = CARTESIAN_POINT ( 'NONE',  ( 0.000000000000000000, 0.000000000000000000, 3.000000000000000000 ) ) ;
#259 = CARTESIAN_POINT ( 'NONE',  ( 0.000000000000000000, 0.000000000000000000, 3.199999999999980638 ) ) ;
#260 = DIRECTION ( 'NONE',  ( 0.000000000000000000, 0.000000000000000000, 1.000000000000000000 ) ) ;
#261 = CC_DESIGN_PERSON_AND_ORGANIZATION_ASSIGNMENT ( #81, #49, ( #22 ) ) ;
#262 = APPLICATION_CONTEXT ( 'configuration controlled 3d designs of mechanical parts and assemblies' ) ;
#263 = FACE_OUTER_BOUND ( 'NONE', #34, .T. ) ;
#264 = ADVANCED_FACE ( 'NONE', ( #163 ), #99, .T. ) ;
#265 = APPROVAL_STATUS ( 'not_yet_approved' ) ;
#266 = ORIENTED_EDGE ( 'NONE', *, *, #200, .T. ) ;
#267 = DESIGN_CONTEXT ( 'detailed design', #262, 'design' ) ;
#268 = SECURITY_CLASSIFICATION_LEVEL ( 'unclassified' ) ;
#269 = ORIENTED_EDGE ( 'NONE', *, *, #257, .T. ) ;
#270 = AXIS2_PLACEMENT_3D ( 'NONE', #120, #260, #286 ) ;
#271 = APPROVAL_ROLE ( '' ) ;
#272 = VERTEX_POINT ( 'NONE', #189 ) ;
#273 = COORDINATED_UNIVERSAL_TIME_OFFSET ( 1, 0, .AHEAD. ) ;
#274 = ORIENTED_EDGE ( 'NONE', *, *, #185, .T. ) ;
#275 = CC_DESIGN_PERSON_AND_ORGANIZATION_ASSIGNMENT ( #143, #240, ( #22 ) ) ;
#276 = DIRECTION ( 'NONE',  ( -1.000000000000000000, 0.000000000000000000, 0.000000000000000000 ) ) ;
#277 = CARTESIAN_POINT ( 'NONE',  ( 0.000000000000000000, 0.000000000000000000, 3.000000000000000000 ) ) ;
#278 = CARTESIAN_POINT ( 'NONE',  ( 0.000000000000000000, 0.000000000000000000, 3.000000000000000000 ) ) ;
#279 = ORIENTED_EDGE ( 'NONE', *, *, #280, .T. ) ;
#280 = EDGE_CURVE ( 'NONE', #52, #132, #199, .T. ) ;
#281 = CARTESIAN_POINT ( 'NONE',  ( 0.000000000000000000, 0.000000000000000000, 318.0000000000000000 ) ) ;
#282 = CARTESIAN_POINT ( 'NONE',  ( 0.000000000000000000, 0.000000000000000000, 3.000000000000000000 ) ) ;
#283 = VECTOR ( 'NONE', #178, 1000.000000000000000 ) ;
#284 = CARTESIAN_POINT ( 'NONE',  ( 3.000000000000000444, 3.673940397442060361E-16, 3.000000000000000000 ) ) ;
#285 = DIRECTION ( 'NONE',  ( 0.000000000000000000, 0.000000000000000000, 1.000000000000000000 ) ) ;
#286 = DIRECTION ( 'NONE',  ( 1.000000000000000000, 0.000000000000000000, 0.000000000000000000 ) ) ;
#287 = PLANE ( 'NONE',  #169 ) ;
#288 = AXIS2_PLACEMENT_3D ( 'NONE', #2, #192, #69 ) ;
#289 = DATE_TIME_ROLE ( 'creation_date' ) ;
#290 = DATE_AND_TIME ( #33, #151 ) ;
#291 = ORIENTED_EDGE ( 'NONE', *, *, #93, .F. ) ;
#292 = APPROVAL_ROLE ( '' ) ;
#293 = CIRCLE ( 'NONE', #154, 1.600000000000000089 ) ;
#294 = CC_DESIGN_PERSON_AND_ORGANIZATION_ASSIGNMENT ( #108, #194, ( #164 ) ) ;
#295 = PERSON_AND_ORGANIZATION ( #67, #145 ) ;
#296 = CARTESIAN_POINT ( 'NONE',  ( 0.000000000000000000, 0.000000000000000000, 0.000000000000000000 ) ) ;
#297 = CIRCLE ( 'NONE', #201, 1.800000000000000266 ) ;
#298 = EDGE_CURVE ( 'NONE', #168, #272, #235, .T. ) ;
#299 = FACE_OUTER_BOUND ( 'NONE', #58, .T. ) ;
#300 = DIRECTION ( 'NONE',  ( -0.000000000000000000, -0.000000000000000000, -1.000000000000000000 ) ) ;
#301 = AXIS2_PLACEMENT_3D ( 'NONE', #281, #300, #276 ) ;
#302 = FACE_OUTER_BOUND ( 'NONE', #155, .T. ) ;
#303 = AXIS2_PLACEMENT_3D ( 'NONE', #94, #101, #1 ) ;
#304 = DIRECTION ( 'NONE',  ( -0.000000000000000000, -0.000000000000000000, -1.000000000000000000 ) ) ;
#305 = DIRECTION ( 'NONE',  ( 1.000000000000000000, 0.000000000000000000, 0.000000000000000000 ) ) ;
#306 = DIRECTION ( 'NONE',  ( 0.000000000000000000, 0.000000000000000000, 1.000000000000000000 ) ) ;
#307 = CARTESIAN_POINT ( 'NONE',  ( -1.800000000000000266, 2.204364238465236069E-16, 2.999999999999990674 ) ) ;
ENDSEC;
END-ISO-10303-21;
