ISO-10303-21;
HEADER;
FILE_DESCRIPTION (( 'STEP AP203' ),
    '1' );
FILE_NAME ('09c8.STEP',
    '2022-07-07T09:42:58',
    ( '' ),
    ( '' ),
    'SwSTEP 2.0',
    'SolidWorks 2019',
    '' );
FILE_SCHEMA (( 'CONFIG_CONTROL_DESIGN' ));
ENDSEC;

DATA;
#1 = APPROVAL ( #216, 'NEURÈENÝ' ) ;
#2 = VECTOR ( 'NONE', #225, 1000.000000000000000 ) ;
#3 = APPROVAL_ROLE ( '' ) ;
#4 = EDGE_CURVE ( 'NONE', #83, #266, #264, .T. ) ;
#5 = ORIENTED_EDGE ( 'NONE', *, *, #103, .T. ) ;
#6 = ORIENTED_EDGE ( 'NONE', *, *, #235, .T. ) ;
#7 = ORIENTED_EDGE ( 'NONE', *, *, #4, .T. ) ;
#8 = CC_DESIGN_APPROVAL ( #88, ( #282 ) ) ;
#9 = ORIENTED_EDGE ( 'NONE', *, *, #80, .F. ) ;
#10 = LINE ( 'NONE', #200, #260 ) ;
#11 = VERTEX_POINT ( 'NONE', #32 ) ;
#12 =( LENGTH_UNIT ( ) NAMED_UNIT ( * ) SI_UNIT ( .MILLI., .METRE. ) );
#13 = CARTESIAN_POINT ( 'NONE',  ( 0.000000000000000000, 0.000000000000000000, 7.000000000000000000 ) ) ;
#14 = CARTESIAN_POINT ( 'NONE',  ( 0.000000000000000000, 0.000000000000000000, 7.000000000000000000 ) ) ;
#15 = EDGE_CURVE ( 'NONE', #198, #151, #135, .T. ) ;
#16 = CARTESIAN_POINT ( 'NONE',  ( 9.000000000000000000, 1.102182119232617714E-15, 0.000000000000000000 ) ) ;
#17 = CIRCLE ( 'NONE', #67, 6.250000000000000000 ) ;
#18 = APPLICATION_CONTEXT ( 'configuration controlled 3d designs of mechanical parts and assemblies' ) ;
#19 = CALENDAR_DATE ( 2022, 7, 7 ) ;
#20 = AXIS2_PLACEMENT_3D ( 'NONE', #14, #61, #250 ) ;
#21 = CC_DESIGN_PERSON_AND_ORGANIZATION_ASSIGNMENT ( #255, #46, ( #229 ) ) ;
#22 = COORDINATED_UNIVERSAL_TIME_OFFSET ( 1, 0, .AHEAD. ) ;
#23 = DIRECTION ( 'NONE',  ( 1.000000000000000000, 0.000000000000000000, 0.000000000000000000 ) ) ;
#24 = CARTESIAN_POINT ( 'NONE',  ( -6.450000000000000178, 7.898971854500428692E-16, 7.000000000000006217 ) ) ;
#25 = VECTOR ( 'NONE', #295, 1000.000000000000000 ) ;
#26 = PERSON_AND_ORGANIZATION_ROLE ( 'classification_officer' ) ;
#27 = ORIENTED_EDGE ( 'NONE', *, *, #103, .F. ) ;
#28 = ORIENTED_EDGE ( 'NONE', *, *, #49, .T. ) ;
#29 = TOROIDAL_SURFACE ( 'NONE', #300, 6.450000000000000178, 0.2000000000000000111 ) ;
#30 = ORIENTED_EDGE ( 'NONE', *, *, #97, .T. ) ;
#31 = DIRECTION ( 'NONE',  ( 1.000000000000000000, 0.000000000000000000, 0.000000000000000000 ) ) ;
#32 = CARTESIAN_POINT ( 'NONE',  ( 6.250000000000000000, 7.654042494670957606E-16, 207.0000000000000284 ) ) ;
#33 = DIRECTION ( 'NONE',  ( 0.000000000000000000, 0.000000000000000000, 1.000000000000000000 ) ) ;
#34 = AXIS2_PLACEMENT_3D ( 'NONE', #119, #214, #23 ) ;
#35 = LOCAL_TIME ( 11, 42, 58.00000000000000000, #140 ) ;
#36 = LINE ( 'NONE', #130, #25 ) ;
#37 = FACE_OUTER_BOUND ( 'NONE', #269, .T. ) ;
#38 = DIRECTION ( 'NONE',  ( -1.000000000000000000, 0.000000000000000000, 0.000000000000000000 ) ) ;
#39 = ADVANCED_FACE ( 'NONE', ( #248 ), #267, .T. ) ;
#40 = PLANE ( 'NONE',  #121 ) ;
#41 = DIRECTION ( 'NONE',  ( 1.000000000000000000, 0.000000000000000000, 0.000000000000000000 ) ) ;
#42 = UNCERTAINTY_MEASURE_WITH_UNIT (LENGTH_MEASURE( 1.000000000000000082E-05 ), #12, 'distance_accuracy_value', 'NONE');
#43 = TOROIDAL_SURFACE ( 'NONE', #177, 6.450000000000000178, 0.2000000000000000111 ) ;
#44 = ADVANCED_FACE ( 'NONE', ( #173 ), #43, .F. ) ;
#45 = AXIS2_PLACEMENT_3D ( 'NONE', #297, #226, #133 ) ;
#46 = PERSON_AND_ORGANIZATION_ROLE ( 'design_owner' ) ;
#47 = DIRECTION ( 'NONE',  ( 0.000000000000000000, 0.000000000000000000, 1.000000000000000000 ) ) ;
#48 = CARTESIAN_POINT ( 'NONE',  ( -9.000000000000000000, 0.000000000000000000, 0.000000000000000000 ) ) ;
#49 = EDGE_CURVE ( 'NONE', #218, #198, #10, .T. ) ;
#50 = CIRCLE ( 'NONE', #278, 6.250000000000000000 ) ;
#51 = AXIS2_PLACEMENT_3D ( 'NONE', #84, #86, #244 ) ;
#52 = SECURITY_CLASSIFICATION_LEVEL ( 'unclassified' ) ;
#53 = ORIENTED_EDGE ( 'NONE', *, *, #235, .F. ) ;
#54 = AXIS2_PLACEMENT_3D ( 'NONE', #307, #47, #236 ) ;
#55 = EDGE_LOOP ( 'NONE', ( #9, #104, #292, #125 ) ) ;
#56 = ORIENTED_EDGE ( 'NONE', *, *, #97, .F. ) ;
#57 = DIRECTION ( 'NONE',  ( -1.000000000000000000, 0.000000000000000000, 0.000000000000000000 ) ) ;
#58 = EDGE_LOOP ( 'NONE', ( #78, #265, #149, #243 ) ) ;
#59 = ORIENTED_EDGE ( 'NONE', *, *, #158, .T. ) ;
#60 = FACE_OUTER_BOUND ( 'NONE', #58, .T. ) ;
#61 = DIRECTION ( 'NONE',  ( -0.000000000000000000, -0.000000000000000000, -1.000000000000000000 ) ) ;
#62 = AXIS2_PLACEMENT_3D ( 'NONE', #228, #128, #246 ) ;
#63 = DIRECTION ( 'NONE',  ( 1.000000000000000000, 0.000000000000000000, -0.000000000000000000 ) ) ;
#64 = CARTESIAN_POINT ( 'NONE',  ( 0.000000000000000000, 0.000000000000000000, 207.0000000000000284 ) ) ;
#65 = DATE_AND_TIME ( #287, #221 ) ;
#66 = SHAPE_DEFINITION_REPRESENTATION ( #180, #184 ) ;
#67 = AXIS2_PLACEMENT_3D ( 'NONE', #72, #284, #186 ) ;
#68 = PERSON_AND_ORGANIZATION ( #263, #74 ) ;
#69 = DIRECTION ( 'NONE',  ( 0.000000000000000000, 0.000000000000000000, 1.000000000000000000 ) ) ;
#70 = APPROVAL_DATE_TIME ( #163, #237 ) ;
#71 = ADVANCED_FACE ( 'NONE', ( #60 ), #29, .F. ) ;
#72 = CARTESIAN_POINT ( 'NONE',  ( 0.000000000000000000, 0.000000000000000000, 7.200000000000011724 ) ) ;
#73 = CIRCLE ( 'NONE', #114, 9.000000000000000000 ) ;
#74 = ORGANIZATION ( 'NEURÈENÝ', 'NEURÈENÝ', '' ) ;
#75 = ORIENTED_EDGE ( 'NONE', *, *, #176, .T. ) ;
#76 = CIRCLE ( 'NONE', #34, 6.450000000000000178 ) ;
#77 = APPROVAL_DATE_TIME ( #65, #1 ) ;
#78 = ORIENTED_EDGE ( 'NONE', *, *, #215, .F. ) ;
#79 = EDGE_LOOP ( 'NONE', ( #59, #75 ) ) ;
#80 = EDGE_CURVE ( 'NONE', #266, #240, #36, .T. ) ;
#81 = DIRECTION ( 'NONE',  ( 0.000000000000000000, 0.000000000000000000, 1.000000000000000000 ) ) ;
#82 = EDGE_LOOP ( 'NONE', ( #196, #123 ) ) ;
#83 = VERTEX_POINT ( 'NONE', #224 ) ;
#84 = CARTESIAN_POINT ( 'NONE',  ( -6.450000000000000178, 7.898971854500428692E-16, 7.200000000000011724 ) ) ;
#85 = CYLINDRICAL_SURFACE ( 'NONE', #261, 9.000000000000000000 ) ;
#86 = DIRECTION ( 'NONE',  ( 1.224646799147353207E-16, 1.000000000000000000, -0.000000000000000000 ) ) ;
#87 = CC_DESIGN_APPROVAL ( #1, ( #174 ) ) ;
#88 = APPROVAL ( #280, 'NEURÈENÝ' ) ;
#89 = CARTESIAN_POINT ( 'NONE',  ( -6.250000000000000000, 0.000000000000000000, 207.0000000000000284 ) ) ;
#90 = CARTESIAN_POINT ( 'NONE',  ( 6.250000000000000000, 7.654042494670957606E-16, 207.0000000000000284 ) ) ;
#91 = APPLICATION_PROTOCOL_DEFINITION ( 'international standard', 'config_control_design', 1994, #18 ) ;
#92 = DATE_AND_TIME ( #19, #145 ) ;
#93 = CARTESIAN_POINT ( 'NONE',  ( 0.000000000000000000, 0.000000000000000000, 0.000000000000000000 ) ) ;
#94 = EDGE_CURVE ( 'NONE', #266, #83, #205, .T. ) ;
#95 = CARTESIAN_POINT ( 'NONE',  ( 0.000000000000000000, 0.000000000000000000, 0.000000000000000000 ) ) ;
#96 = FACE_OUTER_BOUND ( 'NONE', #55, .T. ) ;
#97 = EDGE_CURVE ( 'NONE', #242, #198, #17, .T. ) ;
#98 = AXIS2_PLACEMENT_3D ( 'NONE', #134, #112, #201 ) ;
#99 = CC_DESIGN_DATE_AND_TIME_ASSIGNMENT ( #279, #302, ( #174 ) ) ;
#100 = COORDINATED_UNIVERSAL_TIME_OFFSET ( 1, 0, .AHEAD. ) ;
#101 = CIRCLE ( 'NONE', #20, 6.450000000000000178 ) ;
#102 = EDGE_LOOP ( 'NONE', ( #197, #285, #291, #223 ) ) ;
#103 = EDGE_CURVE ( 'NONE', #11, #218, #166, .T. ) ;
#104 = ORIENTED_EDGE ( 'NONE', *, *, #4, .F. ) ;
#105 = VERTEX_POINT ( 'NONE', #48 ) ;
#106 = ORIENTED_EDGE ( 'NONE', *, *, #49, .F. ) ;
#107 = CLOSED_SHELL ( 'NONE', ( #71, #299, #132, #162, #241, #288, #39, #202, #44 ) ) ;
#108 = DIRECTION ( 'NONE',  ( -0.000000000000000000, -0.000000000000000000, -1.000000000000000000 ) ) ;
#109 = DIRECTION ( 'NONE',  ( 1.000000000000000000, 0.000000000000000000, -0.000000000000000000 ) ) ;
#110 = CARTESIAN_POINT ( 'NONE',  ( 0.000000000000000000, 0.000000000000000000, 7.200000000000011724 ) ) ;
#111 = CARTESIAN_POINT ( 'NONE',  ( 0.000000000000000000, 0.000000000000000000, 7.000000000000000000 ) ) ;
#112 = DIRECTION ( 'NONE',  ( 0.000000000000000000, -1.000000000000000000, 0.000000000000000000 ) ) ;
#113 = DIRECTION ( 'NONE',  ( 0.000000000000000000, 0.000000000000000000, 1.000000000000000000 ) ) ;
#114 = AXIS2_PLACEMENT_3D ( 'NONE', #93, #69, #164 ) ;
#115 = DESIGN_CONTEXT ( 'detailed design', #18, 'design' ) ;
#116 = PERSON_AND_ORGANIZATION ( #263, #74 ) ;
#117 = DIRECTION ( 'NONE',  ( 0.000000000000000000, 0.000000000000000000, 1.000000000000000000 ) ) ;
#118 = APPROVAL_DATE_TIME ( #232, #88 ) ;
#119 = CARTESIAN_POINT ( 'NONE',  ( 0.000000000000000000, 0.000000000000000000, 7.000000000000000000 ) ) ;
#120 = CALENDAR_DATE ( 2022, 7, 7 ) ;
#121 = AXIS2_PLACEMENT_3D ( 'NONE', #159, #155, #131 ) ;
#122 = EDGE_CURVE ( 'NONE', #240, #105, #73, .T. ) ;
#123 = ORIENTED_EDGE ( 'NONE', *, *, #122, .F. ) ;
#124 = ORIENTED_EDGE ( 'NONE', *, *, #15, .F. ) ;
#125 = ORIENTED_EDGE ( 'NONE', *, *, #136, .T. ) ;
#126 = DIRECTION ( 'NONE',  ( -0.000000000000000000, -0.000000000000000000, -1.000000000000000000 ) ) ;
#127 = ORIENTED_EDGE ( 'NONE', *, *, #94, .T. ) ;
#128 = DIRECTION ( 'NONE',  ( -0.000000000000000000, -0.000000000000000000, -1.000000000000000000 ) ) ;
#129 =( GEOMETRIC_REPRESENTATION_CONTEXT ( 3 ) GLOBAL_UNCERTAINTY_ASSIGNED_CONTEXT ( ( #42 ) ) GLOBAL_UNIT_ASSIGNED_CONTEXT ( ( #12, #271, #275 ) ) REPRESENTATION_CONTEXT ( 'NONE', 'WORKASPACE' ) );
#130 = CARTESIAN_POINT ( 'NONE',  ( 9.000000000000000000, 1.102182119232617714E-15, 7.000000000000000000 ) ) ;
#131 = DIRECTION ( 'NONE',  ( 1.000000000000000000, 0.000000000000000000, -0.000000000000000000 ) ) ;
#132 = ADVANCED_FACE ( 'NONE', ( #144 ), #188, .T. ) ;
#133 = DIRECTION ( 'NONE',  ( 1.000000000000000000, 0.000000000000000000, 0.000000000000000000 ) ) ;
#134 = CARTESIAN_POINT ( 'NONE',  ( 6.450000000000000178, 0.000000000000000000, 7.200000000000011724 ) ) ;
#135 = CIRCLE ( 'NONE', #51, 0.1999999999999996503 ) ;
#136 = EDGE_CURVE ( 'NONE', #105, #240, #189, .T. ) ;
#137 = FACE_OUTER_BOUND ( 'NONE', #168, .T. ) ;
#138 = COORDINATED_UNIVERSAL_TIME_OFFSET ( 1, 0, .AHEAD. ) ;
#139 = AXIS2_PLACEMENT_3D ( 'NONE', #251, #298, #109 ) ;
#140 = COORDINATED_UNIVERSAL_TIME_OFFSET ( 1, 0, .AHEAD. ) ;
#141 = CC_DESIGN_PERSON_AND_ORGANIZATION_ASSIGNMENT ( #146, #26, ( #174 ) ) ;
#142 = PERSON_AND_ORGANIZATION_ROLE ( 'creator' ) ;
#143 = CARTESIAN_POINT ( 'NONE',  ( -9.000000000000000000, 0.000000000000000000, 7.000000000000000000 ) ) ;
#144 = FACE_OUTER_BOUND ( 'NONE', #102, .T. ) ;
#145 = LOCAL_TIME ( 11, 42, 58.00000000000000000, #22 ) ;
#146 = PERSON_AND_ORGANIZATION ( #263, #74 ) ;
#147 = MANIFOLD_SOLID_BREP ( 'Zaoblit1', #107 ) ;
#148 = EDGE_CURVE ( 'NONE', #83, #105, #233, .T. ) ;
#149 = ORIENTED_EDGE ( 'NONE', *, *, #158, .F. ) ;
#150 = ORIENTED_EDGE ( 'NONE', *, *, #215, .T. ) ;
#151 = VERTEX_POINT ( 'NONE', #24 ) ;
#152 = DIRECTION ( 'NONE',  ( 0.000000000000000000, 0.000000000000000000, 1.000000000000000000 ) ) ;
#153 = DIRECTION ( 'NONE',  ( 1.000000000000000000, 0.000000000000000000, 0.000000000000000000 ) ) ;
#154 = DIRECTION ( 'NONE',  ( 1.000000000000000000, 0.000000000000000000, 0.000000000000000000 ) ) ;
#155 = DIRECTION ( 'NONE',  ( 0.000000000000000000, 0.000000000000000000, 1.000000000000000000 ) ) ;
#156 = PLANE ( 'NONE',  #139 ) ;
#157 = CARTESIAN_POINT ( 'NONE',  ( 9.000000000000000000, 1.102182119232617714E-15, 7.000000000000000000 ) ) ;
#158 = EDGE_CURVE ( 'NONE', #245, #151, #76, .T. ) ;
#159 = CARTESIAN_POINT ( 'NONE',  ( 0.000000000000000000, 0.000000000000000000, 0.000000000000000000 ) ) ;
#160 = PERSON_AND_ORGANIZATION ( #263, #74 ) ;
#161 = CALENDAR_DATE ( 2022, 7, 7 ) ;
#162 = ADVANCED_FACE ( 'NONE', ( #96 ), #85, .T. ) ;
#163 = DATE_AND_TIME ( #161, #35 ) ;
#164 = DIRECTION ( 'NONE',  ( 1.000000000000000000, 0.000000000000000000, 0.000000000000000000 ) ) ;
#165 = DIRECTION ( 'NONE',  ( -0.000000000000000000, -0.000000000000000000, -1.000000000000000000 ) ) ;
#166 = CIRCLE ( 'NONE', #306, 6.250000000000000000 ) ;
#167 = PERSON_AND_ORGANIZATION_ROLE ( 'creator' ) ;
#168 = EDGE_LOOP ( 'NONE', ( #27, #6, #30, #106 ) ) ;
#169 = ORIENTED_EDGE ( 'NONE', *, *, #257, .F. ) ;
#170 = CARTESIAN_POINT ( 'NONE',  ( 0.000000000000000000, 0.000000000000000000, 7.000000000000000000 ) ) ;
#171 = EDGE_LOOP ( 'NONE', ( #7, #127 ) ) ;
#172 = AXIS2_PLACEMENT_3D ( 'NONE', #13, #81, #212 ) ;
#173 = FACE_OUTER_BOUND ( 'NONE', #290, .T. ) ;
#174 = SECURITY_CLASSIFICATION ( '', '', #52 ) ;
#175 = LINE ( 'NONE', #90, #2 ) ;
#176 = EDGE_CURVE ( 'NONE', #151, #245, #101, .T. ) ;
#177 = AXIS2_PLACEMENT_3D ( 'NONE', #222, #152, #31 ) ;
#178 = FACE_OUTER_BOUND ( 'NONE', #171, .T. ) ;
#179 = PRODUCT_DEFINITION_FORMATION_WITH_SPECIFIED_SOURCE ( 'LIBOVOLNÝ', '', #229, .NOT_KNOWN. ) ;
#180 = PRODUCT_DEFINITION_SHAPE ( 'NONE', 'NONE',  #282 ) ;
#181 = MECHANICAL_CONTEXT ( 'NONE', #210, 'mechanical' ) ;
#182 = AXIS2_PLACEMENT_3D ( 'NONE', #170, #268, #153 ) ;
#183 = APPLICATION_PROTOCOL_DEFINITION ( 'international standard', 'config_control_design', 1994, #210 ) ;
#184 = ADVANCED_BREP_SHAPE_REPRESENTATION ( '09c8', ( #147, #256 ), #129 ) ;
#185 = CALENDAR_DATE ( 2022, 7, 7 ) ;
#186 = DIRECTION ( 'NONE',  ( 1.000000000000000000, 0.000000000000000000, 0.000000000000000000 ) ) ;
#187 = APPROVAL_ROLE ( '' ) ;
#188 = CYLINDRICAL_SURFACE ( 'NONE', #239, 9.000000000000000000 ) ;
#189 = CIRCLE ( 'NONE', #54, 9.000000000000000000 ) ;
#190 = EDGE_CURVE ( 'NONE', #242, #245, #272, .T. ) ;
#191 = AXIS2_PLACEMENT_3D ( 'NONE', #277, #113, #63 ) ;
#192 = CIRCLE ( 'NONE', #45, 6.250000000000000000 ) ;
#193 = PERSON_AND_ORGANIZATION_ROLE ( 'design_supplier' ) ;
#194 = AXIS2_PLACEMENT_3D ( 'NONE', #270, #126, #57 ) ;
#195 = ORIENTED_EDGE ( 'NONE', *, *, #257, .T. ) ;
#196 = ORIENTED_EDGE ( 'NONE', *, *, #136, .F. ) ;
#197 = ORIENTED_EDGE ( 'NONE', *, *, #94, .F. ) ;
#198 = VERTEX_POINT ( 'NONE', #203 ) ;
#199 = CYLINDRICAL_SURFACE ( 'NONE', #62, 6.250000000000000000 ) ;
#200 = CARTESIAN_POINT ( 'NONE',  ( -6.250000000000000000, 0.000000000000000000, 207.0000000000000284 ) ) ;
#201 = DIRECTION ( 'NONE',  ( 0.000000000000000000, 0.000000000000000000, -1.000000000000000000 ) ) ;
#202 = ADVANCED_FACE ( 'NONE', ( #37 ), #156, .T. ) ;
#203 = CARTESIAN_POINT ( 'NONE',  ( -6.250000000000000000, 0.000000000000000000, 7.200000000000011724 ) ) ;
#204 = DIRECTION ( 'NONE',  ( -0.000000000000000000, -0.000000000000000000, -1.000000000000000000 ) ) ;
#205 = CIRCLE ( 'NONE', #172, 9.000000000000000000 ) ;
#206 = LOCAL_TIME ( 11, 42, 58.00000000000000000, #138 ) ;
#207 = CC_DESIGN_PERSON_AND_ORGANIZATION_ASSIGNMENT ( #230, #142, ( #282 ) ) ;
#208 = LOCAL_TIME ( 11, 42, 58.00000000000000000, #209 ) ;
#209 = COORDINATED_UNIVERSAL_TIME_OFFSET ( 1, 0, .AHEAD. ) ;
#210 = APPLICATION_CONTEXT ( 'configuration controlled 3d designs of mechanical parts and assemblies' ) ;
#211 = DATE_TIME_ROLE ( 'creation_date' ) ;
#212 = DIRECTION ( 'NONE',  ( 1.000000000000000000, 0.000000000000000000, 0.000000000000000000 ) ) ;
#213 = APPROVAL_STATUS ( 'not_yet_approved' ) ;
#214 = DIRECTION ( 'NONE',  ( -0.000000000000000000, -0.000000000000000000, -1.000000000000000000 ) ) ;
#215 = EDGE_CURVE ( 'NONE', #198, #242, #192, .T. ) ;
#216 = APPROVAL_STATUS ( 'not_yet_approved' ) ;
#217 = CC_DESIGN_PERSON_AND_ORGANIZATION_ASSIGNMENT ( #262, #193, ( #179 ) ) ;
#218 = VERTEX_POINT ( 'NONE', #89 ) ;
#219 = EDGE_LOOP ( 'NONE', ( #53, #169, #28, #150 ) ) ;
#220 = ORIENTED_EDGE ( 'NONE', *, *, #190, .T. ) ;
#221 = LOCAL_TIME ( 11, 42, 58.00000000000000000, #100 ) ;
#222 = CARTESIAN_POINT ( 'NONE',  ( 0.000000000000000000, 0.000000000000000000, 7.200000000000011724 ) ) ;
#223 = ORIENTED_EDGE ( 'NONE', *, *, #148, .F. ) ;
#224 = CARTESIAN_POINT ( 'NONE',  ( -9.000000000000000000, 0.000000000000000000, 7.000000000000000000 ) ) ;
#225 = DIRECTION ( 'NONE',  ( -0.000000000000000000, -0.000000000000000000, -1.000000000000000000 ) ) ;
#226 = DIRECTION ( 'NONE',  ( 0.000000000000000000, 0.000000000000000000, 1.000000000000000000 ) ) ;
#227 = FACE_BOUND ( 'NONE', #79, .T. ) ;
#228 = CARTESIAN_POINT ( 'NONE',  ( 0.000000000000000000, 0.000000000000000000, 207.0000000000000284 ) ) ;
#229 = PRODUCT ( '09c8', '09c8', '', ( #181 ) ) ;
#230 = PERSON_AND_ORGANIZATION ( #263, #74 ) ;
#231 = CC_DESIGN_APPROVAL ( #237, ( #179 ) ) ;
#232 = DATE_AND_TIME ( #185, #206 ) ;
#233 = LINE ( 'NONE', #143, #273 ) ;
#234 = DIRECTION ( 'NONE',  ( -0.000000000000000000, -0.000000000000000000, -1.000000000000000000 ) ) ;
#235 = EDGE_CURVE ( 'NONE', #11, #242, #175, .T. ) ;
#236 = DIRECTION ( 'NONE',  ( 1.000000000000000000, 0.000000000000000000, 0.000000000000000000 ) ) ;
#237 = APPROVAL ( #213, 'NEURÈENÝ' ) ;
#238 = PERSON_AND_ORGANIZATION ( #263, #74 ) ;
#239 = AXIS2_PLACEMENT_3D ( 'NONE', #258, #165, #259 ) ;
#240 = VERTEX_POINT ( 'NONE', #16 ) ;
#241 = ADVANCED_FACE ( 'NONE', ( #227, #178 ), #276, .T. ) ;
#242 = VERTEX_POINT ( 'NONE', #253 ) ;
#243 = ORIENTED_EDGE ( 'NONE', *, *, #190, .F. ) ;
#244 = DIRECTION ( 'NONE',  ( -1.000000000000000000, 1.224646799147353454E-16, 0.000000000000000000 ) ) ;
#245 = VERTEX_POINT ( 'NONE', #296 ) ;
#246 = DIRECTION ( 'NONE',  ( -1.000000000000000000, 0.000000000000000000, 0.000000000000000000 ) ) ;
#247 = APPROVAL_PERSON_ORGANIZATION ( #160, #1, #3 ) ;
#248 = FACE_OUTER_BOUND ( 'NONE', #219, .T. ) ;
#249 = APPROVAL_PERSON_ORGANIZATION ( #238, #88, #187 ) ;
#250 = DIRECTION ( 'NONE',  ( 1.000000000000000000, 0.000000000000000000, 0.000000000000000000 ) ) ;
#251 = CARTESIAN_POINT ( 'NONE',  ( 0.000000000000000000, 0.000000000000000000, 207.0000000000000284 ) ) ;
#252 = FACE_OUTER_BOUND ( 'NONE', #82, .T. ) ;
#253 = CARTESIAN_POINT ( 'NONE',  ( 6.250000000000000000, 7.654042494670957606E-16, 7.200000000000011724 ) ) ;
#254 = DIRECTION ( 'NONE',  ( 0.000000000000000000, 0.000000000000000000, 1.000000000000000000 ) ) ;
#255 = PERSON_AND_ORGANIZATION ( #263, #74 ) ;
#256 = AXIS2_PLACEMENT_3D ( 'NONE', #95, #254, #303 ) ;
#257 = EDGE_CURVE ( 'NONE', #218, #11, #50, .T. ) ;
#258 = CARTESIAN_POINT ( 'NONE',  ( 0.000000000000000000, 0.000000000000000000, 7.000000000000000000 ) ) ;
#259 = DIRECTION ( 'NONE',  ( -1.000000000000000000, 0.000000000000000000, 0.000000000000000000 ) ) ;
#260 = VECTOR ( 'NONE', #108, 1000.000000000000000 ) ;
#261 = AXIS2_PLACEMENT_3D ( 'NONE', #111, #204, #38 ) ;
#262 = PERSON_AND_ORGANIZATION ( #263, #74 ) ;
#263 = PERSON ( 'NEURÈENÝ', 'NEURÈENÝ', 'NEURÈENÝ', ('NEURÈENÝ'), ('NEURÈENÝ'), ('NEURÈENÝ') ) ;
#264 = CIRCLE ( 'NONE', #182, 9.000000000000000000 ) ;
#265 = ORIENTED_EDGE ( 'NONE', *, *, #15, .T. ) ;
#266 = VERTEX_POINT ( 'NONE', #157 ) ;
#267 = CYLINDRICAL_SURFACE ( 'NONE', #194, 6.250000000000000000 ) ;
#268 = DIRECTION ( 'NONE',  ( 0.000000000000000000, 0.000000000000000000, 1.000000000000000000 ) ) ;
#269 = EDGE_LOOP ( 'NONE', ( #195, #5 ) ) ;
#270 = CARTESIAN_POINT ( 'NONE',  ( 0.000000000000000000, 0.000000000000000000, 207.0000000000000284 ) ) ;
#271 =( NAMED_UNIT ( * ) PLANE_ANGLE_UNIT ( ) SI_UNIT ( $, .RADIAN. ) );
#272 = CIRCLE ( 'NONE', #98, 0.1999999999999996503 ) ;
#273 = VECTOR ( 'NONE', #234, 1000.000000000000000 ) ;
#274 = CC_DESIGN_PERSON_AND_ORGANIZATION_ASSIGNMENT ( #116, #167, ( #179 ) ) ;
#275 =( NAMED_UNIT ( * ) SI_UNIT ( $, .STERADIAN. ) SOLID_ANGLE_UNIT ( ) );
#276 = PLANE ( 'NONE',  #191 ) ;
#277 = CARTESIAN_POINT ( 'NONE',  ( 0.000000000000000000, 0.000000000000000000, 7.000000000000000000 ) ) ;
#278 = AXIS2_PLACEMENT_3D ( 'NONE', #64, #33, #41 ) ;
#279 = DATE_AND_TIME ( #120, #208 ) ;
#280 = APPROVAL_STATUS ( 'not_yet_approved' ) ;
#281 = CARTESIAN_POINT ( 'NONE',  ( 0.000000000000000000, 0.000000000000000000, 207.0000000000000284 ) ) ;
#282 = PRODUCT_DEFINITION ( 'NEZNÁMÝ', '', #179, #115 ) ;
#283 = APPROVAL_ROLE ( '' ) ;
#284 = DIRECTION ( 'NONE',  ( 0.000000000000000000, 0.000000000000000000, 1.000000000000000000 ) ) ;
#285 = ORIENTED_EDGE ( 'NONE', *, *, #80, .T. ) ;
#286 = CC_DESIGN_SECURITY_CLASSIFICATION ( #174, ( #179 ) ) ;
#287 = CALENDAR_DATE ( 2022, 7, 7 ) ;
#288 = ADVANCED_FACE ( 'NONE', ( #252 ), #40, .F. ) ;
#289 = ORIENTED_EDGE ( 'NONE', *, *, #176, .F. ) ;
#290 = EDGE_LOOP ( 'NONE', ( #124, #56, #220, #289 ) ) ;
#291 = ORIENTED_EDGE ( 'NONE', *, *, #122, .T. ) ;
#292 = ORIENTED_EDGE ( 'NONE', *, *, #148, .T. ) ;
#293 = DIRECTION ( 'NONE',  ( 0.000000000000000000, 0.000000000000000000, 1.000000000000000000 ) ) ;
#294 = PRODUCT_RELATED_PRODUCT_CATEGORY ( 'detail', '', ( #229 ) ) ;
#295 = DIRECTION ( 'NONE',  ( -0.000000000000000000, -0.000000000000000000, -1.000000000000000000 ) ) ;
#296 = CARTESIAN_POINT ( 'NONE',  ( 6.450000000000000178, 0.000000000000000000, 7.000000000000006217 ) ) ;
#297 = CARTESIAN_POINT ( 'NONE',  ( 0.000000000000000000, 0.000000000000000000, 7.200000000000011724 ) ) ;
#298 = DIRECTION ( 'NONE',  ( 0.000000000000000000, 0.000000000000000000, 1.000000000000000000 ) ) ;
#299 = ADVANCED_FACE ( 'NONE', ( #137 ), #199, .T. ) ;
#300 = AXIS2_PLACEMENT_3D ( 'NONE', #110, #293, #154 ) ;
#301 = APPROVAL_PERSON_ORGANIZATION ( #68, #237, #283 ) ;
#302 = DATE_TIME_ROLE ( 'classification_date' ) ;
#303 = DIRECTION ( 'NONE',  ( 1.000000000000000000, 0.000000000000000000, 0.000000000000000000 ) ) ;
#304 = CC_DESIGN_DATE_AND_TIME_ASSIGNMENT ( #92, #211, ( #282 ) ) ;
#305 = DIRECTION ( 'NONE',  ( 1.000000000000000000, 0.000000000000000000, 0.000000000000000000 ) ) ;
#306 = AXIS2_PLACEMENT_3D ( 'NONE', #281, #117, #305 ) ;
#307 = CARTESIAN_POINT ( 'NONE',  ( 0.000000000000000000, 0.000000000000000000, 0.000000000000000000 ) ) ;
ENDSEC;
END-ISO-10303-21;
