ISO-10303-21;
HEADER;
FILE_DESCRIPTION (( 'STEP AP203' ),
    '1' );
FILE_NAME ('e6e9.STEP',
    '2022-07-07T09:53:03',
    ( '' ),
    ( '' ),
    'SwSTEP 2.0',
    'SolidWorks 2019',
    '' );
FILE_SCHEMA (( 'CONFIG_CONTROL_DESIGN' ));
ENDSEC;

DATA;
#1 = DATE_AND_TIME ( #57, #69 ) ;
#2 = AXIS2_PLACEMENT_3D ( 'NONE', #26, #230, #24 ) ;
#3 = LOCAL_TIME ( 11, 53, 3.000000000000000000, #102 ) ;
#4 = DIRECTION ( 'NONE',  ( -0.000000000000000000, -0.000000000000000000, -1.000000000000000000 ) ) ;
#5 = EDGE_CURVE ( 'NONE', #67, #247, #131, .T. ) ;
#6 = PERSON_AND_ORGANIZATION_ROLE ( 'creator' ) ;
#7 = ORIENTED_EDGE ( 'NONE', *, *, #193, .T. ) ;
#8 = CARTESIAN_POINT ( 'NONE',  ( -5.100000000000001421, 0.000000000000000000, 5.199999999999996625 ) ) ;
#9 = CALENDAR_DATE ( 2022, 7, 7 ) ;
#10 = AXIS2_PLACEMENT_3D ( 'NONE', #234, #141, #140 ) ;
#11 = ORIENTED_EDGE ( 'NONE', *, *, #304, .T. ) ;
#12 = ORIENTED_EDGE ( 'NONE', *, *, #232, .T. ) ;
#13 = APPROVAL_STATUS ( 'not_yet_approved' ) ;
#14 = ORIENTED_EDGE ( 'NONE', *, *, #307, .F. ) ;
#15 = ORIENTED_EDGE ( 'NONE', *, *, #25, .F. ) ;
#16 = EDGE_LOOP ( 'NONE', ( #14, #294, #11, #63 ) ) ;
#17 = CC_DESIGN_APPROVAL ( #186, ( #184 ) ) ;
#18 = CARTESIAN_POINT ( 'NONE',  ( -5.300000000000000711, 6.490628035480972910E-16, 5.199999999999996625 ) ) ;
#19 = CARTESIAN_POINT ( 'NONE',  ( 8.000000000000000000, 9.797174393178825657E-16, 0.000000000000000000 ) ) ;
#20 = VECTOR ( 'NONE', #198, 1000.000000000000000 ) ;
#21 = FACE_OUTER_BOUND ( 'NONE', #156, .T. ) ;
#22 = ORIENTED_EDGE ( 'NONE', *, *, #75, .T. ) ;
#23 = AXIS2_PLACEMENT_3D ( 'NONE', #27, #286, #238 ) ;
#24 = DIRECTION ( 'NONE',  ( -1.000000000000000000, 0.000000000000000000, 0.000000000000000000 ) ) ;
#25 = EDGE_CURVE ( 'NONE', #178, #87, #219, .T. ) ;
#26 = CARTESIAN_POINT ( 'NONE',  ( 0.000000000000000000, 0.000000000000000000, 5.000000000000000000 ) ) ;
#27 = CARTESIAN_POINT ( 'NONE',  ( 0.000000000000000000, 0.000000000000000000, 130.0000000000000000 ) ) ;
#28 = CARTESIAN_POINT ( 'NONE',  ( -5.300000000000000711, 6.490628035480971924E-16, 4.999999999999998224 ) ) ;
#29 = AXIS2_PLACEMENT_3D ( 'NONE', #98, #78, #58 ) ;
#30 = PERSON_AND_ORGANIZATION ( #43, #274 ) ;
#31 = ADVANCED_FACE ( 'NONE', ( #36 ), #132, .T. ) ;
#32 = PERSON_AND_ORGANIZATION ( #43, #274 ) ;
#33 = CALENDAR_DATE ( 2022, 7, 7 ) ;
#34 = ORIENTED_EDGE ( 'NONE', *, *, #218, .T. ) ;
#35 = ORIENTED_EDGE ( 'NONE', *, *, #179, .T. ) ;
#36 = FACE_OUTER_BOUND ( 'NONE', #291, .T. ) ;
#37 = PERSON_AND_ORGANIZATION ( #43, #274 ) ;
#38 = AXIS2_PLACEMENT_3D ( 'NONE', #170, #4, #144 ) ;
#39 = DIRECTION ( 'NONE',  ( 0.000000000000000000, 0.000000000000000000, -1.000000000000000000 ) ) ;
#40 = ORIENTED_EDGE ( 'NONE', *, *, #218, .F. ) ;
#41 = AXIS2_PLACEMENT_3D ( 'NONE', #18, #152, #268 ) ;
#42 = CARTESIAN_POINT ( 'NONE',  ( 5.100000000000001421, 6.245698675651502811E-16, 130.0000000000000000 ) ) ;
#43 = PERSON ( 'NEURÈENÝ', 'NEURÈENÝ', 'NEURÈENÝ', ('NEURÈENÝ'), ('NEURÈENÝ'), ('NEURÈENÝ') ) ;
#44 = FACE_OUTER_BOUND ( 'NONE', #151, .T. ) ;
#45 = EDGE_CURVE ( 'NONE', #159, #161, #236, .T. ) ;
#46 = DIRECTION ( 'NONE',  ( 1.000000000000000000, 0.000000000000000000, 0.000000000000000000 ) ) ;
#47 = VECTOR ( 'NONE', #104, 1000.000000000000000 ) ;
#48 = PLANE ( 'NONE',  #62 ) ;
#49 = LOCAL_TIME ( 11, 53, 3.000000000000000000, #215 ) ;
#50 = CARTESIAN_POINT ( 'NONE',  ( 0.000000000000000000, 0.000000000000000000, 5.000000000000000000 ) ) ;
#51 = APPROVAL_STATUS ( 'not_yet_approved' ) ;
#52 =( NAMED_UNIT ( * ) SI_UNIT ( $, .STERADIAN. ) SOLID_ANGLE_UNIT ( ) );
#53 = CLOSED_SHELL ( 'NONE', ( #166, #148, #142, #31, #134, #113, #54, #59, #299 ) ) ;
#54 = ADVANCED_FACE ( 'NONE', ( #44 ), #91, .T. ) ;
#55 = DIRECTION ( 'NONE',  ( 0.000000000000000000, 0.000000000000000000, 1.000000000000000000 ) ) ;
#56 = LOCAL_TIME ( 11, 53, 3.000000000000000000, #264 ) ;
#57 = CALENDAR_DATE ( 2022, 7, 7 ) ;
#58 = DIRECTION ( 'NONE',  ( 1.000000000000000000, 0.000000000000000000, 0.000000000000000000 ) ) ;
#59 = ADVANCED_FACE ( 'NONE', ( #224 ), #295, .T. ) ;
#60 = ORIENTED_EDGE ( 'NONE', *, *, #45, .F. ) ;
#61 = ORIENTED_EDGE ( 'NONE', *, *, #150, .T. ) ;
#62 = AXIS2_PLACEMENT_3D ( 'NONE', #133, #229, #298 ) ;
#63 = ORIENTED_EDGE ( 'NONE', *, *, #75, .F. ) ;
#64 = ORIENTED_EDGE ( 'NONE', *, *, #232, .F. ) ;
#65 = LOCAL_TIME ( 11, 53, 3.000000000000000000, #154 ) ;
#66 = ORIENTED_EDGE ( 'NONE', *, *, #5, .F. ) ;
#67 = VERTEX_POINT ( 'NONE', #8 ) ;
#68 = ORIENTED_EDGE ( 'NONE', *, *, #5, .T. ) ;
#69 = LOCAL_TIME ( 11, 53, 3.000000000000000000, #306 ) ;
#70 = CARTESIAN_POINT ( 'NONE',  ( 5.100000000000001421, 6.245698675651502811E-16, 130.0000000000000000 ) ) ;
#71 = APPLICATION_CONTEXT ( 'configuration controlled 3d designs of mechanical parts and assemblies' ) ;
#72 = CARTESIAN_POINT ( 'NONE',  ( 0.000000000000000000, 0.000000000000000000, 0.000000000000000000 ) ) ;
#73 = DIRECTION ( 'NONE',  ( -1.000000000000000000, 0.000000000000000000, 0.000000000000000000 ) ) ;
#74 = APPROVAL_PERSON_ORGANIZATION ( #171, #186, #243 ) ;
#75 = EDGE_CURVE ( 'NONE', #273, #67, #109, .T. ) ;
#76 = DIRECTION ( 'NONE',  ( 1.000000000000000000, 0.000000000000000000, 0.000000000000000000 ) ) ;
#77 = AXIS2_PLACEMENT_3D ( 'NONE', #130, #297, #271 ) ;
#78 = DIRECTION ( 'NONE',  ( -0.000000000000000000, -0.000000000000000000, -1.000000000000000000 ) ) ;
#79 = AXIS2_PLACEMENT_3D ( 'NONE', #183, #164, #279 ) ;
#80 = PERSON_AND_ORGANIZATION ( #43, #274 ) ;
#81 = DATE_AND_TIME ( #9, #3 ) ;
#82 = EDGE_LOOP ( 'NONE', ( #34, #7 ) ) ;
#83 = AXIS2_PLACEMENT_3D ( 'NONE', #162, #189, #73 ) ;
#84 = PERSON_AND_ORGANIZATION_ROLE ( 'classification_officer' ) ;
#85 = ORIENTED_EDGE ( 'NONE', *, *, #211, .T. ) ;
#86 = EDGE_CURVE ( 'NONE', #206, #159, #90, .T. ) ;
#87 = VERTEX_POINT ( 'NONE', #181 ) ;
#88 = ORIENTED_EDGE ( 'NONE', *, *, #262, .T. ) ;
#89 = CIRCLE ( 'NONE', #155, 8.000000000000000000 ) ;
#90 = LINE ( 'NONE', #42, #20 ) ;
#91 = CYLINDRICAL_SURFACE ( 'NONE', #143, 5.100000000000001421 ) ;
#92 = FACE_OUTER_BOUND ( 'NONE', #158, .T. ) ;
#93 = CARTESIAN_POINT ( 'NONE',  ( -8.000000000000000000, 0.000000000000000000, 5.000000000000000000 ) ) ;
#94 = LINE ( 'NONE', #93, #252 ) ;
#95 = DIRECTION ( 'NONE',  ( -0.000000000000000000, -0.000000000000000000, -1.000000000000000000 ) ) ;
#96 = DIRECTION ( 'NONE',  ( 1.000000000000000000, 0.000000000000000000, 0.000000000000000000 ) ) ;
#97 = CARTESIAN_POINT ( 'NONE',  ( 0.000000000000000000, 0.000000000000000000, 0.000000000000000000 ) ) ;
#98 = CARTESIAN_POINT ( 'NONE',  ( 0.000000000000000000, 0.000000000000000000, 5.000000000000000000 ) ) ;
#99 = CARTESIAN_POINT ( 'NONE',  ( 8.000000000000000000, 9.797174393178825657E-16, 5.000000000000000000 ) ) ;
#100 = CIRCLE ( 'NONE', #114, 5.100000000000001421 ) ;
#101 = PERSON_AND_ORGANIZATION_ROLE ( 'design_owner' ) ;
#102 = COORDINATED_UNIVERSAL_TIME_OFFSET ( 1, 0, .AHEAD. ) ;
#103 = APPROVAL ( #51, 'NEURÈENÝ' ) ;
#104 = DIRECTION ( 'NONE',  ( -0.000000000000000000, -0.000000000000000000, -1.000000000000000000 ) ) ;
#105 = DATE_TIME_ROLE ( 'classification_date' ) ;
#106 = EDGE_LOOP ( 'NONE', ( #267, #88, #245, #124 ) ) ;
#107 = APPROVAL_DATE_TIME ( #81, #288 ) ;
#108 = EDGE_LOOP ( 'NONE', ( #12, #157 ) ) ;
#109 = LINE ( 'NONE', #205, #47 ) ;
#110 = CARTESIAN_POINT ( 'NONE',  ( 0.000000000000000000, 0.000000000000000000, 0.000000000000000000 ) ) ;
#111 = CARTESIAN_POINT ( 'NONE',  ( -8.000000000000000000, 0.000000000000000000, 5.000000000000000000 ) ) ;
#112 = PLANE ( 'NONE',  #194 ) ;
#113 = ADVANCED_FACE ( 'NONE', ( #21 ), #112, .F. ) ;
#114 = AXIS2_PLACEMENT_3D ( 'NONE', #121, #55, #190 ) ;
#115 = DIRECTION ( 'NONE',  ( 0.000000000000000000, 0.000000000000000000, 1.000000000000000000 ) ) ;
#116 = DIRECTION ( 'NONE',  ( 0.000000000000000000, 0.000000000000000000, 1.000000000000000000 ) ) ;
#117 = CC_DESIGN_PERSON_AND_ORGANIZATION_ASSIGNMENT ( #176, #6, ( #138 ) ) ;
#118 = APPROVAL_ROLE ( '' ) ;
#119 = LINE ( 'NONE', #281, #265 ) ;
#120 = CIRCLE ( 'NONE', #38, 5.300000000000000711 ) ;
#121 = CARTESIAN_POINT ( 'NONE',  ( 0.000000000000000000, 0.000000000000000000, 5.199999999999996625 ) ) ;
#122 = APPLICATION_PROTOCOL_DEFINITION ( 'international standard', 'config_control_design', 1994, #71 ) ;
#123 = SECURITY_CLASSIFICATION_LEVEL ( 'unclassified' ) ;
#124 = ORIENTED_EDGE ( 'NONE', *, *, #179, .F. ) ;
#125 = DATE_AND_TIME ( #33, #65 ) ;
#126 = AXIS2_PLACEMENT_3D ( 'NONE', #50, #139, #233 ) ;
#127 = EDGE_LOOP ( 'NONE', ( #293, #266 ) ) ;
#128 = SHAPE_DEFINITION_REPRESENTATION ( #290, #212 ) ;
#129 = DIRECTION ( 'NONE',  ( -1.000000000000000000, 0.000000000000000000, 0.000000000000000000 ) ) ;
#130 = CARTESIAN_POINT ( 'NONE',  ( 0.000000000000000000, 0.000000000000000000, 5.000000000000000000 ) ) ;
#131 = CIRCLE ( 'NONE', #41, 0.1999999999999996503 ) ;
#132 = CYLINDRICAL_SURFACE ( 'NONE', #77, 8.000000000000000000 ) ;
#133 = CARTESIAN_POINT ( 'NONE',  ( 0.000000000000000000, 0.000000000000000000, 5.000000000000000000 ) ) ;
#134 = ADVANCED_FACE ( 'NONE', ( #275, #163 ), #48, .T. ) ;
#135 = DIRECTION ( 'NONE',  ( 0.000000000000000000, 0.000000000000000000, 1.000000000000000000 ) ) ;
#136 = DESIGN_CONTEXT ( 'detailed design', #197, 'design' ) ;
#137 = CARTESIAN_POINT ( 'NONE',  ( 0.000000000000000000, 0.000000000000000000, 130.0000000000000000 ) ) ;
#138 = PRODUCT_DEFINITION_FORMATION_WITH_SPECIFIED_SOURCE ( 'LIBOVOLNÝ', '', #246, .NOT_KNOWN. ) ;
#139 = DIRECTION ( 'NONE',  ( 0.000000000000000000, 0.000000000000000000, 1.000000000000000000 ) ) ;
#140 = DIRECTION ( 'NONE',  ( 1.000000000000000000, 0.000000000000000000, 0.000000000000000000 ) ) ;
#141 = DIRECTION ( 'NONE',  ( 0.000000000000000000, 0.000000000000000000, 1.000000000000000000 ) ) ;
#142 = ADVANCED_FACE ( 'NONE', ( #185 ), #257, .T. ) ;
#143 = AXIS2_PLACEMENT_3D ( 'NONE', #253, #222, #129 ) ;
#144 = DIRECTION ( 'NONE',  ( 1.000000000000000000, 0.000000000000000000, 0.000000000000000000 ) ) ;
#145 = DATE_TIME_ROLE ( 'creation_date' ) ;
#146 = APPROVAL_DATE_TIME ( #240, #186 ) ;
#147 = AXIS2_PLACEMENT_3D ( 'NONE', #137, #302, #76 ) ;
#148 = ADVANCED_FACE ( 'NONE', ( #210 ), #207, .T. ) ;
#149 = APPROVAL_ROLE ( '' ) ;
#150 = EDGE_CURVE ( 'NONE', #67, #159, #256, .T. ) ;
#151 = EDGE_LOOP ( 'NONE', ( #201, #250, #22, #61 ) ) ;
#152 = DIRECTION ( 'NONE',  ( 1.224646799147353207E-16, 1.000000000000000000, -0.000000000000000000 ) ) ;
#153 = AXIS2_PLACEMENT_3D ( 'NONE', #249, #225, #220 ) ;
#154 = COORDINATED_UNIVERSAL_TIME_OFFSET ( 1, 0, .AHEAD. ) ;
#155 = AXIS2_PLACEMENT_3D ( 'NONE', #276, #115, #277 ) ;
#156 = EDGE_LOOP ( 'NONE', ( #175, #15 ) ) ;
#157 = ORIENTED_EDGE ( 'NONE', *, *, #251, .T. ) ;
#158 = EDGE_LOOP ( 'NONE', ( #173, #68, #64, #60 ) ) ;
#159 = VERTEX_POINT ( 'NONE', #208 ) ;
#160 = EDGE_CURVE ( 'NONE', #273, #206, #172, .T. ) ;
#161 = VERTEX_POINT ( 'NONE', #187 ) ;
#162 = CARTESIAN_POINT ( 'NONE',  ( 0.000000000000000000, 0.000000000000000000, 130.0000000000000000 ) ) ;
#163 = FACE_OUTER_BOUND ( 'NONE', #82, .T. ) ;
#164 = DIRECTION ( 'NONE',  ( 0.000000000000000000, 0.000000000000000000, 1.000000000000000000 ) ) ;
#165 = DATE_AND_TIME ( #237, #49 ) ;
#166 = ADVANCED_FACE ( 'NONE', ( #92 ), #169, .F. ) ;
#167 = PERSON_AND_ORGANIZATION ( #43, #274 ) ;
#168 =( LENGTH_UNIT ( ) NAMED_UNIT ( * ) SI_UNIT ( .MILLI., .METRE. ) );
#169 = TOROIDAL_SURFACE ( 'NONE', #227, 5.300000000000000711, 0.2000000000000000111 ) ;
#170 = CARTESIAN_POINT ( 'NONE',  ( 0.000000000000000000, 0.000000000000000000, 5.000000000000000000 ) ) ;
#171 = PERSON_AND_ORGANIZATION ( #43, #274 ) ;
#172 = CIRCLE ( 'NONE', #147, 5.100000000000001421 ) ;
#173 = ORIENTED_EDGE ( 'NONE', *, *, #150, .F. ) ;
#174 = PERSON_AND_ORGANIZATION ( #43, #274 ) ;
#175 = ORIENTED_EDGE ( 'NONE', *, *, #211, .F. ) ;
#176 = PERSON_AND_ORGANIZATION ( #43, #274 ) ;
#177 = ORIENTED_EDGE ( 'NONE', *, *, #45, .T. ) ;
#178 = VERTEX_POINT ( 'NONE', #19 ) ;
#179 = EDGE_CURVE ( 'NONE', #204, #87, #94, .T. ) ;
#180 = DIRECTION ( 'NONE',  ( 0.000000000000000000, 0.000000000000000000, 1.000000000000000000 ) ) ;
#181 = CARTESIAN_POINT ( 'NONE',  ( -8.000000000000000000, 0.000000000000000000, 0.000000000000000000 ) ) ;
#182 = ORIENTED_EDGE ( 'NONE', *, *, #304, .F. ) ;
#183 = CARTESIAN_POINT ( 'NONE',  ( 0.000000000000000000, 0.000000000000000000, 5.000000000000000000 ) ) ;
#184 = SECURITY_CLASSIFICATION ( '', '', #123 ) ;
#185 = FACE_OUTER_BOUND ( 'NONE', #106, .T. ) ;
#186 = APPROVAL ( #13, 'NEURÈENÝ' ) ;
#187 = CARTESIAN_POINT ( 'NONE',  ( 5.300000000000000711, 0.000000000000000000, 4.999999999999998224 ) ) ;
#188 = UNCERTAINTY_MEASURE_WITH_UNIT (LENGTH_MEASURE( 1.000000000000000082E-05 ), #168, 'distance_accuracy_value', 'NONE');
#189 = DIRECTION ( 'NONE',  ( -0.000000000000000000, -0.000000000000000000, -1.000000000000000000 ) ) ;
#190 = DIRECTION ( 'NONE',  ( 1.000000000000000000, 0.000000000000000000, 0.000000000000000000 ) ) ;
#191 = APPLICATION_PROTOCOL_DEFINITION ( 'international standard', 'config_control_design', 1994, #197 ) ;
#192 = PRODUCT_RELATED_PRODUCT_CATEGORY ( 'detail', '', ( #246 ) ) ;
#193 = EDGE_CURVE ( 'NONE', #223, #204, #217, .T. ) ;
#194 = AXIS2_PLACEMENT_3D ( 'NONE', #72, #116, #213 ) ;
#195 = CC_DESIGN_APPROVAL ( #288, ( #138 ) ) ;
#196 = CARTESIAN_POINT ( 'NONE',  ( -5.100000000000001421, 0.000000000000000000, 130.0000000000000000 ) ) ;
#197 = APPLICATION_CONTEXT ( 'configuration controlled 3d designs of mechanical parts and assemblies' ) ;
#198 = DIRECTION ( 'NONE',  ( -0.000000000000000000, -0.000000000000000000, -1.000000000000000000 ) ) ;
#199 = MANIFOLD_SOLID_BREP ( 'Zaoblit1', #53 ) ;
#200 = CC_DESIGN_PERSON_AND_ORGANIZATION_ASSIGNMENT ( #30, #259, ( #214 ) ) ;
#201 = ORIENTED_EDGE ( 'NONE', *, *, #86, .F. ) ;
#202 = DIRECTION ( 'NONE',  ( 1.000000000000000000, 0.000000000000000000, 0.000000000000000000 ) ) ;
#203 = CIRCLE ( 'NONE', #29, 5.300000000000000711 ) ;
#204 = VERTEX_POINT ( 'NONE', #111 ) ;
#205 = CARTESIAN_POINT ( 'NONE',  ( -5.100000000000001421, 0.000000000000000000, 130.0000000000000000 ) ) ;
#206 = VERTEX_POINT ( 'NONE', #70 ) ;
#207 = CYLINDRICAL_SURFACE ( 'NONE', #83, 5.100000000000001421 ) ;
#208 = CARTESIAN_POINT ( 'NONE',  ( 5.100000000000001421, 6.245698675651502811E-16, 5.199999999999996625 ) ) ;
#209 = CC_DESIGN_SECURITY_CLASSIFICATION ( #184, ( #138 ) ) ;
#210 = FACE_OUTER_BOUND ( 'NONE', #16, .T. ) ;
#211 = EDGE_CURVE ( 'NONE', #87, #178, #89, .T. ) ;
#212 = ADVANCED_BREP_SHAPE_REPRESENTATION ( 'e6e9', ( #199, #269 ), #231 ) ;
#213 = DIRECTION ( 'NONE',  ( 1.000000000000000000, 0.000000000000000000, -0.000000000000000000 ) ) ;
#214 = PRODUCT_DEFINITION ( 'NEZNÁMÝ', '', #138, #136 ) ;
#215 = COORDINATED_UNIVERSAL_TIME_OFFSET ( 1, 0, .AHEAD. ) ;
#216 = DIRECTION ( 'NONE',  ( -0.000000000000000000, -0.000000000000000000, -1.000000000000000000 ) ) ;
#217 = CIRCLE ( 'NONE', #79, 8.000000000000000000 ) ;
#218 = EDGE_CURVE ( 'NONE', #204, #223, #260, .T. ) ;
#219 = CIRCLE ( 'NONE', #287, 8.000000000000000000 ) ;
#220 = DIRECTION ( 'NONE',  ( 1.000000000000000000, 0.000000000000000000, -0.000000000000000000 ) ) ;
#221 = EDGE_LOOP ( 'NONE', ( #66, #182, #177, #272 ) ) ;
#222 = DIRECTION ( 'NONE',  ( -0.000000000000000000, -0.000000000000000000, -1.000000000000000000 ) ) ;
#223 = VERTEX_POINT ( 'NONE', #99 ) ;
#224 = FACE_OUTER_BOUND ( 'NONE', #127, .T. ) ;
#225 = DIRECTION ( 'NONE',  ( 0.000000000000000000, 0.000000000000000000, 1.000000000000000000 ) ) ;
#226 = CC_DESIGN_PERSON_AND_ORGANIZATION_ASSIGNMENT ( #37, #292, ( #138 ) ) ;
#227 = AXIS2_PLACEMENT_3D ( 'NONE', #303, #254, #46 ) ;
#228 = ORIENTED_EDGE ( 'NONE', *, *, #262, .F. ) ;
#229 = DIRECTION ( 'NONE',  ( 0.000000000000000000, 0.000000000000000000, 1.000000000000000000 ) ) ;
#230 = DIRECTION ( 'NONE',  ( -0.000000000000000000, -0.000000000000000000, -1.000000000000000000 ) ) ;
#231 =( GEOMETRIC_REPRESENTATION_CONTEXT ( 3 ) GLOBAL_UNCERTAINTY_ASSIGNED_CONTEXT ( ( #188 ) ) GLOBAL_UNIT_ASSIGNED_CONTEXT ( ( #168, #285, #52 ) ) REPRESENTATION_CONTEXT ( 'NONE', 'WORKASPACE' ) );
#232 = EDGE_CURVE ( 'NONE', #161, #247, #203, .T. ) ;
#233 = DIRECTION ( 'NONE',  ( 1.000000000000000000, 0.000000000000000000, 0.000000000000000000 ) ) ;
#234 = CARTESIAN_POINT ( 'NONE',  ( 0.000000000000000000, 0.000000000000000000, 5.199999999999996625 ) ) ;
#235 = CC_DESIGN_DATE_AND_TIME_ASSIGNMENT ( #125, #105, ( #184 ) ) ;
#236 = CIRCLE ( 'NONE', #283, 0.1999999999999996503 ) ;
#237 = CALENDAR_DATE ( 2022, 7, 7 ) ;
#238 = DIRECTION ( 'NONE',  ( 1.000000000000000000, 0.000000000000000000, 0.000000000000000000 ) ) ;
#239 = CALENDAR_DATE ( 2022, 7, 7 ) ;
#240 = DATE_AND_TIME ( #239, #56 ) ;
#241 = CC_DESIGN_PERSON_AND_ORGANIZATION_ASSIGNMENT ( #80, #101, ( #246 ) ) ;
#242 = DIRECTION ( 'NONE',  ( 0.000000000000000000, -1.000000000000000000, 0.000000000000000000 ) ) ;
#243 = APPROVAL_ROLE ( '' ) ;
#244 = AXIS2_PLACEMENT_3D ( 'NONE', #301, #135, #255 ) ;
#245 = ORIENTED_EDGE ( 'NONE', *, *, #25, .T. ) ;
#246 = PRODUCT ( 'e6e9', 'e6e9', '', ( #280 ) ) ;
#247 = VERTEX_POINT ( 'NONE', #28 ) ;
#248 = CC_DESIGN_PERSON_AND_ORGANIZATION_ASSIGNMENT ( #174, #84, ( #184 ) ) ;
#249 = CARTESIAN_POINT ( 'NONE',  ( 0.000000000000000000, 0.000000000000000000, 130.0000000000000000 ) ) ;
#250 = ORIENTED_EDGE ( 'NONE', *, *, #160, .F. ) ;
#251 = EDGE_CURVE ( 'NONE', #247, #161, #120, .T. ) ;
#252 = VECTOR ( 'NONE', #95, 1000.000000000000000 ) ;
#253 = CARTESIAN_POINT ( 'NONE',  ( 0.000000000000000000, 0.000000000000000000, 130.0000000000000000 ) ) ;
#254 = DIRECTION ( 'NONE',  ( 0.000000000000000000, 0.000000000000000000, 1.000000000000000000 ) ) ;
#255 = DIRECTION ( 'NONE',  ( 1.000000000000000000, 0.000000000000000000, 0.000000000000000000 ) ) ;
#256 = CIRCLE ( 'NONE', #244, 5.100000000000001421 ) ;
#257 = CYLINDRICAL_SURFACE ( 'NONE', #2, 8.000000000000000000 ) ;
#258 = FACE_OUTER_BOUND ( 'NONE', #221, .T. ) ;
#259 = PERSON_AND_ORGANIZATION_ROLE ( 'creator' ) ;
#260 = CIRCLE ( 'NONE', #126, 8.000000000000000000 ) ;
#261 = DIRECTION ( 'NONE',  ( 0.000000000000000000, 0.000000000000000000, 1.000000000000000000 ) ) ;
#262 = EDGE_CURVE ( 'NONE', #223, #178, #119, .T. ) ;
#263 = APPROVAL_STATUS ( 'not_yet_approved' ) ;
#264 = COORDINATED_UNIVERSAL_TIME_OFFSET ( 1, 0, .AHEAD. ) ;
#265 = VECTOR ( 'NONE', #216, 1000.000000000000000 ) ;
#266 = ORIENTED_EDGE ( 'NONE', *, *, #307, .T. ) ;
#267 = ORIENTED_EDGE ( 'NONE', *, *, #193, .F. ) ;
#268 = DIRECTION ( 'NONE',  ( -1.000000000000000000, 1.224646799147353454E-16, 0.000000000000000000 ) ) ;
#269 = AXIS2_PLACEMENT_3D ( 'NONE', #97, #261, #96 ) ;
#270 = CC_DESIGN_DATE_AND_TIME_ASSIGNMENT ( #1, #145, ( #214 ) ) ;
#271 = DIRECTION ( 'NONE',  ( -1.000000000000000000, 0.000000000000000000, 0.000000000000000000 ) ) ;
#272 = ORIENTED_EDGE ( 'NONE', *, *, #251, .F. ) ;
#273 = VERTEX_POINT ( 'NONE', #196 ) ;
#274 = ORGANIZATION ( 'NEURÈENÝ', 'NEURÈENÝ', '' ) ;
#275 = FACE_BOUND ( 'NONE', #108, .T. ) ;
#276 = CARTESIAN_POINT ( 'NONE',  ( 0.000000000000000000, 0.000000000000000000, 0.000000000000000000 ) ) ;
#277 = DIRECTION ( 'NONE',  ( 1.000000000000000000, 0.000000000000000000, 0.000000000000000000 ) ) ;
#278 = APPROVAL_PERSON_ORGANIZATION ( #32, #288, #149 ) ;
#279 = DIRECTION ( 'NONE',  ( 1.000000000000000000, 0.000000000000000000, 0.000000000000000000 ) ) ;
#280 = MECHANICAL_CONTEXT ( 'NONE', #71, 'mechanical' ) ;
#281 = CARTESIAN_POINT ( 'NONE',  ( 8.000000000000000000, 9.797174393178825657E-16, 5.000000000000000000 ) ) ;
#282 = APPROVAL_DATE_TIME ( #165, #103 ) ;
#283 = AXIS2_PLACEMENT_3D ( 'NONE', #296, #242, #39 ) ;
#284 = APPROVAL_PERSON_ORGANIZATION ( #167, #103, #118 ) ;
#285 =( NAMED_UNIT ( * ) PLANE_ANGLE_UNIT ( ) SI_UNIT ( $, .RADIAN. ) );
#286 = DIRECTION ( 'NONE',  ( 0.000000000000000000, 0.000000000000000000, 1.000000000000000000 ) ) ;
#287 = AXIS2_PLACEMENT_3D ( 'NONE', #110, #180, #202 ) ;
#288 = APPROVAL ( #263, 'NEURÈENÝ' ) ;
#289 = TOROIDAL_SURFACE ( 'NONE', #10, 5.300000000000000711, 0.2000000000000000111 ) ;
#290 = PRODUCT_DEFINITION_SHAPE ( 'NONE', 'NONE',  #214 ) ;
#291 = EDGE_LOOP ( 'NONE', ( #228, #40, #35, #85 ) ) ;
#292 = PERSON_AND_ORGANIZATION_ROLE ( 'design_supplier' ) ;
#293 = ORIENTED_EDGE ( 'NONE', *, *, #160, .T. ) ;
#294 = ORIENTED_EDGE ( 'NONE', *, *, #86, .T. ) ;
#295 = PLANE ( 'NONE',  #153 ) ;
#296 = CARTESIAN_POINT ( 'NONE',  ( 5.300000000000000711, 0.000000000000000000, 5.199999999999996625 ) ) ;
#297 = DIRECTION ( 'NONE',  ( -0.000000000000000000, -0.000000000000000000, -1.000000000000000000 ) ) ;
#298 = DIRECTION ( 'NONE',  ( 1.000000000000000000, 0.000000000000000000, -0.000000000000000000 ) ) ;
#299 = ADVANCED_FACE ( 'NONE', ( #258 ), #289, .F. ) ;
#300 = CIRCLE ( 'NONE', #23, 5.100000000000001421 ) ;
#301 = CARTESIAN_POINT ( 'NONE',  ( 0.000000000000000000, 0.000000000000000000, 5.199999999999996625 ) ) ;
#302 = DIRECTION ( 'NONE',  ( 0.000000000000000000, 0.000000000000000000, 1.000000000000000000 ) ) ;
#303 = CARTESIAN_POINT ( 'NONE',  ( 0.000000000000000000, 0.000000000000000000, 5.199999999999996625 ) ) ;
#304 = EDGE_CURVE ( 'NONE', #159, #67, #100, .T. ) ;
#305 = CC_DESIGN_APPROVAL ( #103, ( #214 ) ) ;
#306 = COORDINATED_UNIVERSAL_TIME_OFFSET ( 1, 0, .AHEAD. ) ;
#307 = EDGE_CURVE ( 'NONE', #206, #273, #300, .T. ) ;
ENDSEC;
END-ISO-10303-21;
