ISO-10303-21;
HEADER;
FILE_DESCRIPTION (( 'STEP AP203' ),
    '1' );
FILE_NAME ('fdde.STEP',
    '2022-07-07T09:30:54',
    ( '' ),
    ( '' ),
    'SwSTEP 2.0',
    'SolidWorks 2019',
    '' );
FILE_SCHEMA (( 'CONFIG_CONTROL_DESIGN' ));
ENDSEC;

DATA;
#1 = ORIENTED_EDGE ( 'NONE', *, *, #33, .T. ) ;
#2 = CARTESIAN_POINT ( 'NONE',  ( 0.000000000000000000, 0.000000000000000000, 810.0000000000000000 ) ) ;
#3 = DIRECTION ( 'NONE',  ( 0.000000000000000000, 0.000000000000000000, 1.000000000000000000 ) ) ;
#4 = EDGE_CURVE ( 'NONE', #45, #200, #20, .T. ) ;
#5 =( NAMED_UNIT ( * ) SI_UNIT ( $, .STERADIAN. ) SOLID_ANGLE_UNIT ( ) );
#6 = ORIENTED_EDGE ( 'NONE', *, *, #191, .T. ) ;
#7 = CARTESIAN_POINT ( 'NONE',  ( 0.000000000000000000, 0.000000000000000000, 10.19999999999998685 ) ) ;
#8 = EDGE_LOOP ( 'NONE', ( #189, #6 ) ) ;
#9 = MECHANICAL_CONTEXT ( 'NONE', #192, 'mechanical' ) ;
#10 = ORIENTED_EDGE ( 'NONE', *, *, #191, .F. ) ;
#11 = DIRECTION ( 'NONE',  ( 0.000000000000000000, 0.000000000000000000, 1.000000000000000000 ) ) ;
#12 = ORIENTED_EDGE ( 'NONE', *, *, #187, .T. ) ;
#13 = CIRCLE ( 'NONE', #233, 0.2000000000000005107 ) ;
#14 = CALENDAR_DATE ( 2022, 7, 7 ) ;
#15 = ORIENTED_EDGE ( 'NONE', *, *, #270, .F. ) ;
#16 = CARTESIAN_POINT ( 'NONE',  ( 0.000000000000000000, 0.000000000000000000, 10.19999999999998685 ) ) ;
#17 = ADVANCED_FACE ( 'NONE', ( #123 ), #90, .T. ) ;
#18 = FACE_OUTER_BOUND ( 'NONE', #227, .T. ) ;
#19 = COORDINATED_UNIVERSAL_TIME_OFFSET ( 1, 0, .AHEAD. ) ;
#20 = CIRCLE ( 'NONE', #104, 12.50000000000000000 ) ;
#21 = ORIENTED_EDGE ( 'NONE', *, *, #187, .F. ) ;
#22 = CIRCLE ( 'NONE', #56, 12.70000000000000107 ) ;
#23 = DIRECTION ( 'NONE',  ( -1.000000000000000000, 0.000000000000000000, 0.000000000000000000 ) ) ;
#24 = FACE_OUTER_BOUND ( 'NONE', #166, .T. ) ;
#25 = DIRECTION ( 'NONE',  ( -1.000000000000000000, 0.000000000000000000, 0.000000000000000000 ) ) ;
#26 = AXIS2_PLACEMENT_3D ( 'NONE', #151, #126, #217 ) ;
#27 = CIRCLE ( 'NONE', #144, 12.50000000000000000 ) ;
#28 = AXIS2_PLACEMENT_3D ( 'NONE', #174, #272, #290 ) ;
#29 = CARTESIAN_POINT ( 'NONE',  ( 0.000000000000000000, 0.000000000000000000, 0.000000000000000000 ) ) ;
#30 = EDGE_CURVE ( 'NONE', #200, #45, #27, .T. ) ;
#31 = FACE_OUTER_BOUND ( 'NONE', #46, .T. ) ;
#32 = VERTEX_POINT ( 'NONE', #67 ) ;
#33 = EDGE_CURVE ( 'NONE', #198, #271, #140, .T. ) ;
#34 = AXIS2_PLACEMENT_3D ( 'NONE', #265, #307, #103 ) ;
#35 = PERSON_AND_ORGANIZATION ( #277, #179 ) ;
#36 = APPLICATION_PROTOCOL_DEFINITION ( 'international standard', 'config_control_design', 1994, #192 ) ;
#37 = ORIENTED_EDGE ( 'NONE', *, *, #75, .F. ) ;
#38 = VECTOR ( 'NONE', #59, 1000.000000000000000 ) ;
#39 = EDGE_LOOP ( 'NONE', ( #262, #119, #51, #234 ) ) ;
#40 = AXIS2_PLACEMENT_3D ( 'NONE', #47, #242, #25 ) ;
#41 = DIRECTION ( 'NONE',  ( 0.000000000000000000, 0.000000000000000000, 1.000000000000000000 ) ) ;
#42 = PERSON_AND_ORGANIZATION ( #277, #179 ) ;
#43 = DIRECTION ( 'NONE',  ( -0.000000000000000000, -0.000000000000000000, -1.000000000000000000 ) ) ;
#44 = CALENDAR_DATE ( 2022, 7, 7 ) ;
#45 = VERTEX_POINT ( 'NONE', #213 ) ;
#46 = EDGE_LOOP ( 'NONE', ( #225, #115 ) ) ;
#47 = CARTESIAN_POINT ( 'NONE',  ( 0.000000000000000000, 0.000000000000000000, 810.0000000000000000 ) ) ;
#48 = CC_DESIGN_DATE_AND_TIME_ASSIGNMENT ( #278, #57, ( #228 ) ) ;
#49 = PLANE ( 'NONE',  #289 ) ;
#50 = AXIS2_PLACEMENT_3D ( 'NONE', #301, #95, #184 ) ;
#51 = ORIENTED_EDGE ( 'NONE', *, *, #87, .T. ) ;
#52 = EDGE_CURVE ( 'NONE', #232, #68, #245, .T. ) ;
#53 = APPROVAL_PERSON_ORGANIZATION ( #89, #141, #62 ) ;
#54 = APPROVAL_ROLE ( '' ) ;
#55 = ORIENTED_EDGE ( 'NONE', *, *, #4, .T. ) ;
#56 = AXIS2_PLACEMENT_3D ( 'NONE', #226, #81, #175 ) ;
#57 = DATE_TIME_ROLE ( 'creation_date' ) ;
#58 = PERSON_AND_ORGANIZATION ( #277, #179 ) ;
#59 = DIRECTION ( 'NONE',  ( -0.000000000000000000, -0.000000000000000000, -1.000000000000000000 ) ) ;
#60 = ORIENTED_EDGE ( 'NONE', *, *, #122, .F. ) ;
#61 = SECURITY_CLASSIFICATION ( '', '', #256 ) ;
#62 = APPROVAL_ROLE ( '' ) ;
#63 = ORIENTED_EDGE ( 'NONE', *, *, #148, .T. ) ;
#64 = ADVANCED_FACE ( 'NONE', ( #18 ), #285, .T. ) ;
#65 = COORDINATED_UNIVERSAL_TIME_OFFSET ( 1, 0, .AHEAD. ) ;
#66 = MANIFOLD_SOLID_BREP ( 'Zaoblit1', #281 ) ;
#67 = CARTESIAN_POINT ( 'NONE',  ( 12.50000000000000000, 1.530808498934191521E-15, 810.0000000000000000 ) ) ;
#68 = VERTEX_POINT ( 'NONE', #167 ) ;
#69 = AXIS2_PLACEMENT_3D ( 'NONE', #223, #154, #113 ) ;
#70 = ADVANCED_FACE ( 'NONE', ( #120 ), #296, .T. ) ;
#71 = CARTESIAN_POINT ( 'NONE',  ( 0.000000000000000000, 0.000000000000000000, 10.00000000000000000 ) ) ;
#72 = CARTESIAN_POINT ( 'NONE',  ( 16.00000000000000000, 1.959434878635765131E-15, 10.00000000000000000 ) ) ;
#73 = EDGE_LOOP ( 'NONE', ( #202, #131, #177, #12 ) ) ;
#74 = DIRECTION ( 'NONE',  ( 0.000000000000000000, 0.000000000000000000, 1.000000000000000000 ) ) ;
#75 = EDGE_CURVE ( 'NONE', #45, #68, #13, .T. ) ;
#76 = CARTESIAN_POINT ( 'NONE',  ( -16.00000000000000000, 0.000000000000000000, 10.00000000000000000 ) ) ;
#77 = FACE_BOUND ( 'NONE', #253, .T. ) ;
#78 = AXIS2_PLACEMENT_3D ( 'NONE', #241, #304, #169 ) ;
#79 = AXIS2_PLACEMENT_3D ( 'NONE', #71, #74, #101 ) ;
#80 = CC_DESIGN_SECURITY_CLASSIFICATION ( #61, ( #116 ) ) ;
#81 = DIRECTION ( 'NONE',  ( -0.000000000000000000, -0.000000000000000000, -1.000000000000000000 ) ) ;
#82 = ORIENTED_EDGE ( 'NONE', *, *, #52, .F. ) ;
#83 = CARTESIAN_POINT ( 'NONE',  ( -16.00000000000000000, 0.000000000000000000, 0.000000000000000000 ) ) ;
#84 = CC_DESIGN_DATE_AND_TIME_ASSIGNMENT ( #210, #96, ( #61 ) ) ;
#85 = FACE_OUTER_BOUND ( 'NONE', #110, .T. ) ;
#86 = DIRECTION ( 'NONE',  ( 1.000000000000000000, 0.000000000000000000, -0.000000000000000000 ) ) ;
#87 = EDGE_CURVE ( 'NONE', #136, #200, #143, .T. ) ;
#88 = APPROVAL_DATE_TIME ( #188, #288 ) ;
#89 = PERSON_AND_ORGANIZATION ( #277, #179 ) ;
#90 = CYLINDRICAL_SURFACE ( 'NONE', #150, 16.00000000000000000 ) ;
#91 = EDGE_LOOP ( 'NONE', ( #201, #207, #138, #82 ) ) ;
#92 = PERSON_AND_ORGANIZATION_ROLE ( 'creator' ) ;
#93 = CIRCLE ( 'NONE', #26, 16.00000000000000000 ) ;
#94 = ADVANCED_FACE ( 'NONE', ( #261 ), #214, .F. ) ;
#95 = DIRECTION ( 'NONE',  ( -0.000000000000000000, -0.000000000000000000, -1.000000000000000000 ) ) ;
#96 = DATE_TIME_ROLE ( 'classification_date' ) ;
#97 = DIRECTION ( 'NONE',  ( 1.000000000000000000, 0.000000000000000000, 0.000000000000000000 ) ) ;
#98 = ORIENTED_EDGE ( 'NONE', *, *, #87, .F. ) ;
#99 = CARTESIAN_POINT ( 'NONE',  ( 12.50000000000000000, 1.530808498934191521E-15, 810.0000000000000000 ) ) ;
#100 = CC_DESIGN_APPROVAL ( #288, ( #61 ) ) ;
#101 = DIRECTION ( 'NONE',  ( 1.000000000000000000, 0.000000000000000000, 0.000000000000000000 ) ) ;
#102 = EDGE_LOOP ( 'NONE', ( #159, #279, #208, #37 ) ) ;
#103 = DIRECTION ( 'NONE',  ( 1.000000000000000000, 0.000000000000000000, 0.000000000000000000 ) ) ;
#104 = AXIS2_PLACEMENT_3D ( 'NONE', #16, #182, #257 ) ;
#105 = CC_DESIGN_PERSON_AND_ORGANIZATION_ASSIGNMENT ( #35, #135, ( #252 ) ) ;
#106 =( GEOMETRIC_REPRESENTATION_CONTEXT ( 3 ) GLOBAL_UNCERTAINTY_ASSIGNED_CONTEXT ( ( #127 ) ) GLOBAL_UNIT_ASSIGNED_CONTEXT ( ( #114, #199, #5 ) ) REPRESENTATION_CONTEXT ( 'NONE', 'WORKASPACE' ) );
#107 = CC_DESIGN_APPROVAL ( #141, ( #116 ) ) ;
#108 = DIRECTION ( 'NONE',  ( 0.000000000000000000, 0.000000000000000000, 1.000000000000000000 ) ) ;
#109 = DIRECTION ( 'NONE',  ( 0.000000000000000000, 0.000000000000000000, 1.000000000000000000 ) ) ;
#110 = EDGE_LOOP ( 'NONE', ( #21, #15 ) ) ;
#111 = APPROVAL ( #273, 'NEURÈENÝ' ) ;
#112 = DIRECTION ( 'NONE',  ( 1.000000000000000000, 0.000000000000000000, 0.000000000000000000 ) ) ;
#113 = DIRECTION ( 'NONE',  ( 1.000000000000000000, 0.000000000000000000, -0.000000000000000000 ) ) ;
#114 =( LENGTH_UNIT ( ) NAMED_UNIT ( * ) SI_UNIT ( .MILLI., .METRE. ) );
#115 = ORIENTED_EDGE ( 'NONE', *, *, #132, .T. ) ;
#116 = PRODUCT_DEFINITION_FORMATION_WITH_SPECIFIED_SOURCE ( 'LIBOVOLNÝ', '', #252, .NOT_KNOWN. ) ;
#117 = DIRECTION ( 'NONE',  ( -1.000000000000000000, 0.000000000000000000, 0.000000000000000000 ) ) ;
#118 = APPROVAL_STATUS ( 'not_yet_approved' ) ;
#119 = ORIENTED_EDGE ( 'NONE', *, *, #220, .F. ) ;
#120 = FACE_OUTER_BOUND ( 'NONE', #39, .T. ) ;
#121 = CALENDAR_DATE ( 2022, 7, 7 ) ;
#122 = EDGE_CURVE ( 'NONE', #168, #236, #303, .T. ) ;
#123 = FACE_OUTER_BOUND ( 'NONE', #73, .T. ) ;
#124 = DIRECTION ( 'NONE',  ( 0.000000000000000000, 0.000000000000000000, 1.000000000000000000 ) ) ;
#125 = APPROVAL_PERSON_ORGANIZATION ( #260, #288, #283 ) ;
#126 = DIRECTION ( 'NONE',  ( 0.000000000000000000, 0.000000000000000000, 1.000000000000000000 ) ) ;
#127 = UNCERTAINTY_MEASURE_WITH_UNIT (LENGTH_MEASURE( 1.000000000000000082E-05 ), #114, 'distance_accuracy_value', 'NONE');
#128 = CIRCLE ( 'NONE', #28, 0.2000000000000005107 ) ;
#129 = CARTESIAN_POINT ( 'NONE',  ( -12.70000000000000107, 1.555301434917138630E-15, 9.999999999999992895 ) ) ;
#130 = DIRECTION ( 'NONE',  ( 1.000000000000000000, 0.000000000000000000, 0.000000000000000000 ) ) ;
#131 = ORIENTED_EDGE ( 'NONE', *, *, #266, .F. ) ;
#132 = EDGE_CURVE ( 'NONE', #198, #168, #305, .T. ) ;
#133 = DIRECTION ( 'NONE',  ( 1.000000000000000000, 0.000000000000000000, 0.000000000000000000 ) ) ;
#134 = LOCAL_TIME ( 11, 30, 54.00000000000000000, #65 ) ;
#135 = PERSON_AND_ORGANIZATION_ROLE ( 'design_owner' ) ;
#136 = VERTEX_POINT ( 'NONE', #172 ) ;
#137 = CARTESIAN_POINT ( 'NONE',  ( 16.00000000000000000, 1.959434878635765131E-15, 0.000000000000000000 ) ) ;
#138 = ORIENTED_EDGE ( 'NONE', *, *, #75, .T. ) ;
#139 = DIRECTION ( 'NONE',  ( -0.000000000000000000, -0.000000000000000000, -1.000000000000000000 ) ) ;
#140 = LINE ( 'NONE', #160, #203 ) ;
#141 = APPROVAL ( #118, 'NEURÈENÝ' ) ;
#142 = COORDINATED_UNIVERSAL_TIME_OFFSET ( 1, 0, .AHEAD. ) ;
#143 = LINE ( 'NONE', #211, #38 ) ;
#144 = AXIS2_PLACEMENT_3D ( 'NONE', #163, #41, #97 ) ;
#145 = APPROVAL_PERSON_ORGANIZATION ( #176, #111, #54 ) ;
#146 = DIRECTION ( 'NONE',  ( 0.000000000000000000, 0.000000000000000000, -1.000000000000000000 ) ) ;
#147 = CIRCLE ( 'NONE', #237, 16.00000000000000000 ) ;
#148 = EDGE_CURVE ( 'NONE', #32, #45, #287, .T. ) ;
#149 = DIRECTION ( 'NONE',  ( -0.000000000000000000, -0.000000000000000000, -1.000000000000000000 ) ) ;
#150 = AXIS2_PLACEMENT_3D ( 'NONE', #298, #280, #117 ) ;
#151 = CARTESIAN_POINT ( 'NONE',  ( 0.000000000000000000, 0.000000000000000000, 0.000000000000000000 ) ) ;
#152 = ADVANCED_FACE ( 'NONE', ( #24 ), #264, .T. ) ;
#153 = SHAPE_DEFINITION_REPRESENTATION ( #222, #219 ) ;
#154 = DIRECTION ( 'NONE',  ( 0.000000000000000000, 0.000000000000000000, 1.000000000000000000 ) ) ;
#155 = PLANE ( 'NONE',  #69 ) ;
#156 = AXIS2_PLACEMENT_3D ( 'NONE', #197, #11, #112 ) ;
#157 = COORDINATED_UNIVERSAL_TIME_OFFSET ( 1, 0, .AHEAD. ) ;
#158 = CIRCLE ( 'NONE', #34, 12.50000000000000000 ) ;
#159 = ORIENTED_EDGE ( 'NONE', *, *, #30, .F. ) ;
#160 = CARTESIAN_POINT ( 'NONE',  ( 16.00000000000000000, 1.959434878635765131E-15, 10.00000000000000000 ) ) ;
#161 = CIRCLE ( 'NONE', #156, 12.50000000000000000 ) ;
#162 = DATE_AND_TIME ( #14, #238 ) ;
#163 = CARTESIAN_POINT ( 'NONE',  ( 0.000000000000000000, 0.000000000000000000, 10.19999999999998685 ) ) ;
#164 = ADVANCED_FACE ( 'NONE', ( #218 ), #171, .T. ) ;
#165 = CALENDAR_DATE ( 2022, 7, 7 ) ;
#166 = EDGE_LOOP ( 'NONE', ( #10, #63, #55, #98 ) ) ;
#167 = CARTESIAN_POINT ( 'NONE',  ( 12.70000000000000107, 0.000000000000000000, 9.999999999999992895 ) ) ;
#168 = VERTEX_POINT ( 'NONE', #170 ) ;
#169 = DIRECTION ( 'NONE',  ( 1.000000000000000000, 0.000000000000000000, 0.000000000000000000 ) ) ;
#170 = CARTESIAN_POINT ( 'NONE',  ( -16.00000000000000000, 0.000000000000000000, 10.00000000000000000 ) ) ;
#171 = PLANE ( 'NONE',  #215 ) ;
#172 = CARTESIAN_POINT ( 'NONE',  ( -12.50000000000000000, 0.000000000000000000, 810.0000000000000000 ) ) ;
#173 = CC_DESIGN_PERSON_AND_ORGANIZATION_ASSIGNMENT ( #239, #302, ( #228 ) ) ;
#174 = CARTESIAN_POINT ( 'NONE',  ( -12.70000000000000107, 1.555301434917138630E-15, 10.19999999999998685 ) ) ;
#175 = DIRECTION ( 'NONE',  ( 1.000000000000000000, 0.000000000000000000, 0.000000000000000000 ) ) ;
#176 = PERSON_AND_ORGANIZATION ( #277, #179 ) ;
#177 = ORIENTED_EDGE ( 'NONE', *, *, #122, .T. ) ;
#178 = CARTESIAN_POINT ( 'NONE',  ( 0.000000000000000000, 0.000000000000000000, 10.00000000000000000 ) ) ;
#179 = ORGANIZATION ( 'NEURÈENÝ', 'NEURÈENÝ', '' ) ;
#180 = APPROVAL_DATE_TIME ( #162, #141 ) ;
#181 = CARTESIAN_POINT ( 'NONE',  ( 0.000000000000000000, 0.000000000000000000, 10.00000000000000000 ) ) ;
#182 = DIRECTION ( 'NONE',  ( 0.000000000000000000, 0.000000000000000000, 1.000000000000000000 ) ) ;
#183 = PERSON_AND_ORGANIZATION_ROLE ( 'classification_officer' ) ;
#184 = DIRECTION ( 'NONE',  ( -1.000000000000000000, 0.000000000000000000, 0.000000000000000000 ) ) ;
#185 = APPROVAL_STATUS ( 'not_yet_approved' ) ;
#186 = ORIENTED_EDGE ( 'NONE', *, *, #270, .T. ) ;
#187 = EDGE_CURVE ( 'NONE', #236, #271, #93, .T. ) ;
#188 = DATE_AND_TIME ( #44, #134 ) ;
#189 = ORIENTED_EDGE ( 'NONE', *, *, #220, .T. ) ;
#190 = AXIS2_PLACEMENT_3D ( 'NONE', #181, #284, #23 ) ;
#191 = EDGE_CURVE ( 'NONE', #32, #136, #158, .T. ) ;
#192 = APPLICATION_CONTEXT ( 'configuration controlled 3d designs of mechanical parts and assemblies' ) ;
#193 = FACE_OUTER_BOUND ( 'NONE', #91, .T. ) ;
#194 = LOCAL_TIME ( 11, 30, 54.00000000000000000, #19 ) ;
#195 = VECTOR ( 'NONE', #267, 1000.000000000000000 ) ;
#196 = PRODUCT_RELATED_PRODUCT_CATEGORY ( 'detail', '', ( #252 ) ) ;
#197 = CARTESIAN_POINT ( 'NONE',  ( 0.000000000000000000, 0.000000000000000000, 810.0000000000000000 ) ) ;
#198 = VERTEX_POINT ( 'NONE', #72 ) ;
#199 =( NAMED_UNIT ( * ) PLANE_ANGLE_UNIT ( ) SI_UNIT ( $, .RADIAN. ) );
#200 = VERTEX_POINT ( 'NONE', #244 ) ;
#201 = ORIENTED_EDGE ( 'NONE', *, *, #300, .F. ) ;
#202 = ORIENTED_EDGE ( 'NONE', *, *, #33, .F. ) ;
#203 = VECTOR ( 'NONE', #43, 1000.000000000000000 ) ;
#204 = APPROVAL_DATE_TIME ( #299, #111 ) ;
#205 = CARTESIAN_POINT ( 'NONE',  ( 12.70000000000000107, 0.000000000000000000, 10.19999999999998685 ) ) ;
#206 = ADVANCED_FACE ( 'NONE', ( #193 ), #255, .F. ) ;
#207 = ORIENTED_EDGE ( 'NONE', *, *, #4, .F. ) ;
#208 = ORIENTED_EDGE ( 'NONE', *, *, #263, .F. ) ;
#209 = CC_DESIGN_APPROVAL ( #111, ( #228 ) ) ;
#210 = DATE_AND_TIME ( #121, #295 ) ;
#211 = CARTESIAN_POINT ( 'NONE',  ( -12.50000000000000000, 0.000000000000000000, 810.0000000000000000 ) ) ;
#212 = CALENDAR_DATE ( 2022, 7, 7 ) ;
#213 = CARTESIAN_POINT ( 'NONE',  ( 12.50000000000000000, 1.530808498934191521E-15, 10.19999999999998685 ) ) ;
#214 = TOROIDAL_SURFACE ( 'NONE', #78, 12.70000000000000107, 0.2000000000000000111 ) ;
#215 = AXIS2_PLACEMENT_3D ( 'NONE', #2, #124, #306 ) ;
#216 = ADVANCED_FACE ( 'NONE', ( #85 ), #49, .F. ) ;
#217 = DIRECTION ( 'NONE',  ( 1.000000000000000000, 0.000000000000000000, 0.000000000000000000 ) ) ;
#218 = FACE_OUTER_BOUND ( 'NONE', #8, .T. ) ;
#219 = ADVANCED_BREP_SHAPE_REPRESENTATION ( 'fdde', ( #66, #247 ), #106 ) ;
#220 = EDGE_CURVE ( 'NONE', #136, #32, #161, .T. ) ;
#221 = LOCAL_TIME ( 11, 30, 54.00000000000000000, #157 ) ;
#222 = PRODUCT_DEFINITION_SHAPE ( 'NONE', 'NONE',  #228 ) ;
#223 = CARTESIAN_POINT ( 'NONE',  ( 0.000000000000000000, 0.000000000000000000, 10.00000000000000000 ) ) ;
#224 = DIRECTION ( 'NONE',  ( 1.000000000000000000, 0.000000000000000000, 0.000000000000000000 ) ) ;
#225 = ORIENTED_EDGE ( 'NONE', *, *, #266, .T. ) ;
#226 = CARTESIAN_POINT ( 'NONE',  ( 0.000000000000000000, 0.000000000000000000, 10.00000000000000000 ) ) ;
#227 = EDGE_LOOP ( 'NONE', ( #274, #1, #186, #60 ) ) ;
#228 = PRODUCT_DEFINITION ( 'NEZNÁMÝ', '', #116, #268 ) ;
#229 = APPLICATION_PROTOCOL_DEFINITION ( 'international standard', 'config_control_design', 1994, #250 ) ;
#230 = CARTESIAN_POINT ( 'NONE',  ( 0.000000000000000000, 0.000000000000000000, 0.000000000000000000 ) ) ;
#231 = ORIENTED_EDGE ( 'NONE', *, *, #52, .T. ) ;
#232 = VERTEX_POINT ( 'NONE', #129 ) ;
#233 = AXIS2_PLACEMENT_3D ( 'NONE', #205, #282, #146 ) ;
#234 = ORIENTED_EDGE ( 'NONE', *, *, #30, .T. ) ;
#235 = DIRECTION ( 'NONE',  ( 1.000000000000000000, 0.000000000000000000, 0.000000000000000000 ) ) ;
#236 = VERTEX_POINT ( 'NONE', #83 ) ;
#237 = AXIS2_PLACEMENT_3D ( 'NONE', #269, #108, #224 ) ;
#238 = LOCAL_TIME ( 11, 30, 54.00000000000000000, #251 ) ;
#239 = PERSON_AND_ORGANIZATION ( #277, #179 ) ;
#240 = CIRCLE ( 'NONE', #276, 16.00000000000000000 ) ;
#241 = CARTESIAN_POINT ( 'NONE',  ( 0.000000000000000000, 0.000000000000000000, 10.19999999999998685 ) ) ;
#242 = DIRECTION ( 'NONE',  ( -0.000000000000000000, -0.000000000000000000, -1.000000000000000000 ) ) ;
#243 = ADVANCED_FACE ( 'NONE', ( #77, #31 ), #155, .T. ) ;
#244 = CARTESIAN_POINT ( 'NONE',  ( -12.50000000000000000, 0.000000000000000000, 10.19999999999998685 ) ) ;
#245 = CIRCLE ( 'NONE', #286, 12.70000000000000107 ) ;
#246 = DIRECTION ( 'NONE',  ( 0.000000000000000000, 0.000000000000000000, 1.000000000000000000 ) ) ;
#247 = AXIS2_PLACEMENT_3D ( 'NONE', #230, #248, #133 ) ;
#248 = DIRECTION ( 'NONE',  ( 0.000000000000000000, 0.000000000000000000, 1.000000000000000000 ) ) ;
#249 = CC_DESIGN_PERSON_AND_ORGANIZATION_ASSIGNMENT ( #58, #297, ( #116 ) ) ;
#250 = APPLICATION_CONTEXT ( 'configuration controlled 3d designs of mechanical parts and assemblies' ) ;
#251 = COORDINATED_UNIVERSAL_TIME_OFFSET ( 1, 0, .AHEAD. ) ;
#252 = PRODUCT ( 'fdde', 'fdde', '', ( #9 ) ) ;
#253 = EDGE_LOOP ( 'NONE', ( #292, #231 ) ) ;
#254 = VECTOR ( 'NONE', #149, 1000.000000000000000 ) ;
#255 = TOROIDAL_SURFACE ( 'NONE', #291, 12.70000000000000107, 0.2000000000000000111 ) ;
#256 = SECURITY_CLASSIFICATION_LEVEL ( 'unclassified' ) ;
#257 = DIRECTION ( 'NONE',  ( 1.000000000000000000, 0.000000000000000000, 0.000000000000000000 ) ) ;
#258 = PERSON_AND_ORGANIZATION ( #277, #179 ) ;
#259 = CARTESIAN_POINT ( 'NONE',  ( 0.000000000000000000, 0.000000000000000000, 10.00000000000000000 ) ) ;
#260 = PERSON_AND_ORGANIZATION ( #277, #179 ) ;
#261 = FACE_OUTER_BOUND ( 'NONE', #102, .T. ) ;
#262 = ORIENTED_EDGE ( 'NONE', *, *, #148, .F. ) ;
#263 = EDGE_CURVE ( 'NONE', #68, #232, #22, .T. ) ;
#264 = CYLINDRICAL_SURFACE ( 'NONE', #40, 12.50000000000000000 ) ;
#265 = CARTESIAN_POINT ( 'NONE',  ( 0.000000000000000000, 0.000000000000000000, 810.0000000000000000 ) ) ;
#266 = EDGE_CURVE ( 'NONE', #168, #198, #240, .T. ) ;
#267 = DIRECTION ( 'NONE',  ( -0.000000000000000000, -0.000000000000000000, -1.000000000000000000 ) ) ;
#268 = DESIGN_CONTEXT ( 'detailed design', #250, 'design' ) ;
#269 = CARTESIAN_POINT ( 'NONE',  ( 0.000000000000000000, 0.000000000000000000, 0.000000000000000000 ) ) ;
#270 = EDGE_CURVE ( 'NONE', #271, #236, #147, .T. ) ;
#271 = VERTEX_POINT ( 'NONE', #137 ) ;
#272 = DIRECTION ( 'NONE',  ( 1.224646799147353207E-16, 1.000000000000000000, -0.000000000000000000 ) ) ;
#273 = APPROVAL_STATUS ( 'not_yet_approved' ) ;
#274 = ORIENTED_EDGE ( 'NONE', *, *, #132, .F. ) ;
#275 = CC_DESIGN_PERSON_AND_ORGANIZATION_ASSIGNMENT ( #258, #92, ( #116 ) ) ;
#276 = AXIS2_PLACEMENT_3D ( 'NONE', #178, #3, #130 ) ;
#277 = PERSON ( 'NEURÈENÝ', 'NEURÈENÝ', 'NEURÈENÝ', ('NEURÈENÝ'), ('NEURÈENÝ'), ('NEURÈENÝ') ) ;
#278 = DATE_AND_TIME ( #212, #194 ) ;
#279 = ORIENTED_EDGE ( 'NONE', *, *, #300, .T. ) ;
#280 = DIRECTION ( 'NONE',  ( -0.000000000000000000, -0.000000000000000000, -1.000000000000000000 ) ) ;
#281 = CLOSED_SHELL ( 'NONE', ( #94, #152, #64, #17, #243, #216, #70, #164, #206 ) ) ;
#282 = DIRECTION ( 'NONE',  ( 0.000000000000000000, -1.000000000000000000, 0.000000000000000000 ) ) ;
#283 = APPROVAL_ROLE ( '' ) ;
#284 = DIRECTION ( 'NONE',  ( -0.000000000000000000, -0.000000000000000000, -1.000000000000000000 ) ) ;
#285 = CYLINDRICAL_SURFACE ( 'NONE', #190, 16.00000000000000000 ) ;
#286 = AXIS2_PLACEMENT_3D ( 'NONE', #259, #139, #235 ) ;
#287 = LINE ( 'NONE', #99, #195 ) ;
#288 = APPROVAL ( #185, 'NEURÈENÝ' ) ;
#289 = AXIS2_PLACEMENT_3D ( 'NONE', #29, #246, #86 ) ;
#290 = DIRECTION ( 'NONE',  ( -1.000000000000000000, 1.224646799147353207E-16, 0.000000000000000000 ) ) ;
#291 = AXIS2_PLACEMENT_3D ( 'NONE', #7, #109, #294 ) ;
#292 = ORIENTED_EDGE ( 'NONE', *, *, #263, .T. ) ;
#293 = CC_DESIGN_PERSON_AND_ORGANIZATION_ASSIGNMENT ( #42, #183, ( #61 ) ) ;
#294 = DIRECTION ( 'NONE',  ( 1.000000000000000000, 0.000000000000000000, 0.000000000000000000 ) ) ;
#295 = LOCAL_TIME ( 11, 30, 54.00000000000000000, #142 ) ;
#296 = CYLINDRICAL_SURFACE ( 'NONE', #50, 12.50000000000000000 ) ;
#297 = PERSON_AND_ORGANIZATION_ROLE ( 'design_supplier' ) ;
#298 = CARTESIAN_POINT ( 'NONE',  ( 0.000000000000000000, 0.000000000000000000, 10.00000000000000000 ) ) ;
#299 = DATE_AND_TIME ( #165, #221 ) ;
#300 = EDGE_CURVE ( 'NONE', #200, #232, #128, .T. ) ;
#301 = CARTESIAN_POINT ( 'NONE',  ( 0.000000000000000000, 0.000000000000000000, 810.0000000000000000 ) ) ;
#302 = PERSON_AND_ORGANIZATION_ROLE ( 'creator' ) ;
#303 = LINE ( 'NONE', #76, #254 ) ;
#304 = DIRECTION ( 'NONE',  ( 0.000000000000000000, 0.000000000000000000, 1.000000000000000000 ) ) ;
#305 = CIRCLE ( 'NONE', #79, 16.00000000000000000 ) ;
#306 = DIRECTION ( 'NONE',  ( 1.000000000000000000, 0.000000000000000000, -0.000000000000000000 ) ) ;
#307 = DIRECTION ( 'NONE',  ( 0.000000000000000000, 0.000000000000000000, 1.000000000000000000 ) ) ;
ENDSEC;
END-ISO-10303-21;
