ISO-10303-21;
HEADER;
FILE_DESCRIPTION (( 'STEP AP203' ),
    '1' );
FILE_NAME ('089a.STEP',
    '2022-07-07T09:56:32',
    ( '' ),
    ( '' ),
    'SwSTEP 2.0',
    'SolidWorks 2019',
    '' );
FILE_SCHEMA (( 'CONFIG_CONTROL_DESIGN' ));
ENDSEC;

DATA;
#1 = PLANE ( 'NONE',  #299 ) ;
#2 = EDGE_CURVE ( 'NONE', #3, #121, #141, .T. ) ;
#3 = VERTEX_POINT ( 'NONE', #98 ) ;
#4 = PERSON_AND_ORGANIZATION_ROLE ( 'classification_officer' ) ;
#5 = ORIENTED_EDGE ( 'NONE', *, *, #220, .F. ) ;
#6 = CC_DESIGN_SECURITY_CLASSIFICATION ( #196, ( #29 ) ) ;
#7 = CARTESIAN_POINT ( 'NONE',  ( 7.000000000000000000, 8.572527594031473190E-16, 5.000000000000000000 ) ) ;
#8 = PERSON ( 'NEURÈENÝ', 'NEURÈENÝ', 'NEURÈENÝ', ('NEURÈENÝ'), ('NEURÈENÝ'), ('NEURÈENÝ') ) ;
#9 = EDGE_LOOP ( 'NONE', ( #48, #100 ) ) ;
#10 = TOROIDAL_SURFACE ( 'NONE', #293, 4.700000000000000178, 0.2000000000000000111 ) ;
#11 = ADVANCED_FACE ( 'NONE', ( #144 ), #1, .F. ) ;
#12 = CARTESIAN_POINT ( 'NONE',  ( 4.500000000000000888, 5.510910596163089556E-16, 405.0000000000000000 ) ) ;
#13 = VECTOR ( 'NONE', #164, 1000.000000000000000 ) ;
#14 = CARTESIAN_POINT ( 'NONE',  ( -4.500000000000000888, 0.000000000000000000, 405.0000000000000000 ) ) ;
#15 = CARTESIAN_POINT ( 'NONE',  ( -4.700000000000000178, 5.755839955992559655E-16, 5.199999999999982414 ) ) ;
#16 = CARTESIAN_POINT ( 'NONE',  ( 0.000000000000000000, 0.000000000000000000, 0.000000000000000000 ) ) ;
#17 = LOCAL_TIME ( 11, 56, 32.00000000000000000, #301 ) ;
#18 = DIRECTION ( 'NONE',  ( 0.000000000000000000, 0.000000000000000000, 1.000000000000000000 ) ) ;
#19 =( NAMED_UNIT ( * ) PLANE_ANGLE_UNIT ( ) SI_UNIT ( $, .RADIAN. ) );
#20 = ORIENTED_EDGE ( 'NONE', *, *, #2, .F. ) ;
#21 = CARTESIAN_POINT ( 'NONE',  ( -7.000000000000000000, 0.000000000000000000, 5.000000000000000000 ) ) ;
#22 = APPROVAL_STATUS ( 'not_yet_approved' ) ;
#23 = ORIENTED_EDGE ( 'NONE', *, *, #277, .F. ) ;
#24 = DIRECTION ( 'NONE',  ( 1.000000000000000000, 0.000000000000000000, -0.000000000000000000 ) ) ;
#25 = SECURITY_CLASSIFICATION_LEVEL ( 'unclassified' ) ;
#26 = VERTEX_POINT ( 'NONE', #7 ) ;
#27 = CIRCLE ( 'NONE', #53, 7.000000000000000000 ) ;
#28 = CIRCLE ( 'NONE', #116, 7.000000000000000000 ) ;
#29 = PRODUCT_DEFINITION_FORMATION_WITH_SPECIFIED_SOURCE ( 'LIBOVOLNÝ', '', #268, .NOT_KNOWN. ) ;
#30 = APPROVAL_PERSON_ORGANIZATION ( #241, #31, #63 ) ;
#31 = APPROVAL ( #110, 'NEURÈENÝ' ) ;
#32 = CARTESIAN_POINT ( 'NONE',  ( 0.000000000000000000, 0.000000000000000000, 405.0000000000000000 ) ) ;
#33 = DIRECTION ( 'NONE',  ( 0.000000000000000000, 0.000000000000000000, 1.000000000000000000 ) ) ;
#34 = DESIGN_CONTEXT ( 'detailed design', #221, 'design' ) ;
#35 = DATE_AND_TIME ( #95, #17 ) ;
#36 = DIRECTION ( 'NONE',  ( 1.000000000000000000, 0.000000000000000000, -0.000000000000000000 ) ) ;
#37 = DIRECTION ( 'NONE',  ( 0.000000000000000000, 0.000000000000000000, 1.000000000000000000 ) ) ;
#38 = DIRECTION ( 'NONE',  ( -1.000000000000000000, 1.224646799147353454E-16, 0.000000000000000000 ) ) ;
#39 = CARTESIAN_POINT ( 'NONE',  ( 0.000000000000000000, 0.000000000000000000, 5.199999999999982414 ) ) ;
#40 = FACE_BOUND ( 'NONE', #287, .T. ) ;
#41 = AXIS2_PLACEMENT_3D ( 'NONE', #213, #302, #36 ) ;
#42 = COORDINATED_UNIVERSAL_TIME_OFFSET ( 1, 0, .AHEAD. ) ;
#43 = ORIENTED_EDGE ( 'NONE', *, *, #152, .T. ) ;
#44 = VECTOR ( 'NONE', #198, 1000.000000000000000 ) ;
#45 = PLANE ( 'NONE',  #280 ) ;
#46 = ORIENTED_EDGE ( 'NONE', *, *, #212, .F. ) ;
#47 = AXIS2_PLACEMENT_3D ( 'NONE', #32, #189, #162 ) ;
#48 = ORIENTED_EDGE ( 'NONE', *, *, #50, .F. ) ;
#49 = EDGE_CURVE ( 'NONE', #292, #224, #218, .T. ) ;
#50 = EDGE_CURVE ( 'NONE', #121, #228, #27, .T. ) ;
#51 = ADVANCED_FACE ( 'NONE', ( #264 ), #45, .T. ) ;
#52 = LOCAL_TIME ( 11, 56, 32.00000000000000000, #76 ) ;
#53 = AXIS2_PLACEMENT_3D ( 'NONE', #290, #240, #169 ) ;
#54 = CIRCLE ( 'NONE', #105, 7.000000000000000000 ) ;
#55 = APPROVAL ( #118, 'NEURÈENÝ' ) ;
#56 = CARTESIAN_POINT ( 'NONE',  ( 0.000000000000000000, 0.000000000000000000, 5.000000000000000000 ) ) ;
#57 = LOCAL_TIME ( 11, 56, 32.00000000000000000, #99 ) ;
#58 =( NAMED_UNIT ( * ) SI_UNIT ( $, .STERADIAN. ) SOLID_ANGLE_UNIT ( ) );
#59 = CYLINDRICAL_SURFACE ( 'NONE', #288, 7.000000000000000000 ) ;
#60 = DIRECTION ( 'NONE',  ( 0.000000000000000000, 0.000000000000000000, 1.000000000000000000 ) ) ;
#61 = CC_DESIGN_PERSON_AND_ORGANIZATION_ASSIGNMENT ( #214, #129, ( #268 ) ) ;
#62 = CARTESIAN_POINT ( 'NONE',  ( 0.000000000000000000, 0.000000000000000000, 405.0000000000000000 ) ) ;
#63 = APPROVAL_ROLE ( '' ) ;
#64 = DIRECTION ( 'NONE',  ( 1.000000000000000000, 0.000000000000000000, 0.000000000000000000 ) ) ;
#65 = FACE_OUTER_BOUND ( 'NONE', #245, .T. ) ;
#66 = CLOSED_SHELL ( 'NONE', ( #149, #140, #274, #89, #159, #11, #97, #51, #84 ) ) ;
#67 = DIRECTION ( 'NONE',  ( -1.000000000000000000, 0.000000000000000000, 0.000000000000000000 ) ) ;
#68 = APPROVAL_DATE_TIME ( #35, #55 ) ;
#69 = CARTESIAN_POINT ( 'NONE',  ( 0.000000000000000000, 0.000000000000000000, 0.000000000000000000 ) ) ;
#70 = VECTOR ( 'NONE', #206, 1000.000000000000000 ) ;
#71 = APPROVAL_DATE_TIME ( #171, #284 ) ;
#72 = EDGE_CURVE ( 'NONE', #202, #265, #204, .T. ) ;
#73 = EDGE_LOOP ( 'NONE', ( #82, #96, #85, #248 ) ) ;
#74 = AXIS2_PLACEMENT_3D ( 'NONE', #194, #286, #168 ) ;
#75 = ORIENTED_EDGE ( 'NONE', *, *, #247, .F. ) ;
#76 = COORDINATED_UNIVERSAL_TIME_OFFSET ( 1, 0, .AHEAD. ) ;
#77 = EDGE_LOOP ( 'NONE', ( #222, #143, #23, #5 ) ) ;
#78 = EDGE_LOOP ( 'NONE', ( #216, #43 ) ) ;
#79 = AXIS2_PLACEMENT_3D ( 'NONE', #231, #300, #90 ) ;
#80 = DATE_AND_TIME ( #307, #150 ) ;
#81 = ADVANCED_BREP_SHAPE_REPRESENTATION ( '089a', ( #201, #298 ), #181 ) ;
#82 = ORIENTED_EDGE ( 'NONE', *, *, #152, .F. ) ;
#83 = AXIS2_PLACEMENT_3D ( 'NONE', #56, #256, #157 ) ;
#84 = ADVANCED_FACE ( 'NONE', ( #154 ), #10, .F. ) ;
#85 = ORIENTED_EDGE ( 'NONE', *, *, #247, .T. ) ;
#86 = FACE_OUTER_BOUND ( 'NONE', #139, .T. ) ;
#87 = CC_DESIGN_PERSON_AND_ORGANIZATION_ASSIGNMENT ( #146, #4, ( #196 ) ) ;
#88 = DIRECTION ( 'NONE',  ( 1.000000000000000000, 0.000000000000000000, -0.000000000000000000 ) ) ;
#89 = ADVANCED_FACE ( 'NONE', ( #270 ), #59, .T. ) ;
#90 = DIRECTION ( 'NONE',  ( 0.000000000000000000, 0.000000000000000000, -1.000000000000000000 ) ) ;
#91 = PERSON_AND_ORGANIZATION_ROLE ( 'creator' ) ;
#92 = CC_DESIGN_PERSON_AND_ORGANIZATION_ASSIGNMENT ( #199, #261, ( #29 ) ) ;
#93 = LINE ( 'NONE', #14, #13 ) ;
#94 = CARTESIAN_POINT ( 'NONE',  ( 4.500000000000000888, 5.510910596163089556E-16, 405.0000000000000000 ) ) ;
#95 = CALENDAR_DATE ( 2022, 7, 7 ) ;
#96 = ORIENTED_EDGE ( 'NONE', *, *, #230, .T. ) ;
#97 = ADVANCED_FACE ( 'NONE', ( #86 ), #187, .T. ) ;
#98 = CARTESIAN_POINT ( 'NONE',  ( -7.000000000000000000, 0.000000000000000000, 5.000000000000000000 ) ) ;
#99 = COORDINATED_UNIVERSAL_TIME_OFFSET ( 1, 0, .AHEAD. ) ;
#100 = ORIENTED_EDGE ( 'NONE', *, *, #272, .F. ) ;
#101 = CALENDAR_DATE ( 2022, 7, 7 ) ;
#102 = CC_DESIGN_APPROVAL ( #284, ( #196 ) ) ;
#103 = VERTEX_POINT ( 'NONE', #94 ) ;
#104 = ORIENTED_EDGE ( 'NONE', *, *, #135, .F. ) ;
#105 = AXIS2_PLACEMENT_3D ( 'NONE', #115, #60, #188 ) ;
#106 = DIRECTION ( 'NONE',  ( -1.000000000000000000, 0.000000000000000000, 0.000000000000000000 ) ) ;
#107 = DIRECTION ( 'NONE',  ( 1.000000000000000000, 0.000000000000000000, 0.000000000000000000 ) ) ;
#108 = AXIS2_PLACEMENT_3D ( 'NONE', #232, #273, #254 ) ;
#109 = DIRECTION ( 'NONE',  ( -0.000000000000000000, -0.000000000000000000, -1.000000000000000000 ) ) ;
#110 = APPROVAL_STATUS ( 'not_yet_approved' ) ;
#111 = DIRECTION ( 'NONE',  ( 1.224646799147353207E-16, 1.000000000000000000, -0.000000000000000000 ) ) ;
#112 = PERSON_AND_ORGANIZATION ( #8, #249 ) ;
#113 = AXIS2_PLACEMENT_3D ( 'NONE', #294, #18, #64 ) ;
#114 = DIRECTION ( 'NONE',  ( -0.000000000000000000, -0.000000000000000000, -1.000000000000000000 ) ) ;
#115 = CARTESIAN_POINT ( 'NONE',  ( 0.000000000000000000, 0.000000000000000000, 0.000000000000000000 ) ) ;
#116 = AXIS2_PLACEMENT_3D ( 'NONE', #133, #238, #185 ) ;
#117 = CARTESIAN_POINT ( 'NONE',  ( 0.000000000000000000, 0.000000000000000000, 5.199999999999982414 ) ) ;
#118 = APPROVAL_STATUS ( 'not_yet_approved' ) ;
#119 = CARTESIAN_POINT ( 'NONE',  ( 0.000000000000000000, 0.000000000000000000, 405.0000000000000000 ) ) ;
#120 = CC_DESIGN_DATE_AND_TIME_ASSIGNMENT ( #142, #291, ( #196 ) ) ;
#121 = VERTEX_POINT ( 'NONE', #258 ) ;
#122 = ORIENTED_EDGE ( 'NONE', *, *, #50, .T. ) ;
#123 = EDGE_LOOP ( 'NONE', ( #46, #75, #172, #225 ) ) ;
#124 = VERTEX_POINT ( 'NONE', #205 ) ;
#125 = PRODUCT_DEFINITION_SHAPE ( 'NONE', 'NONE',  #145 ) ;
#126 = ORIENTED_EDGE ( 'NONE', *, *, #223, .F. ) ;
#127 = AXIS2_PLACEMENT_3D ( 'NONE', #297, #239, #211 ) ;
#128 = PLANE ( 'NONE',  #41 ) ;
#129 = PERSON_AND_ORGANIZATION_ROLE ( 'design_owner' ) ;
#130 = LINE ( 'NONE', #234, #304 ) ;
#131 = DIRECTION ( 'NONE',  ( 1.000000000000000000, 0.000000000000000000, 0.000000000000000000 ) ) ;
#132 = CARTESIAN_POINT ( 'NONE',  ( -4.500000000000000888, 0.000000000000000000, 5.199999999999982414 ) ) ;
#133 = CARTESIAN_POINT ( 'NONE',  ( 0.000000000000000000, 0.000000000000000000, 5.000000000000000000 ) ) ;
#134 = DIRECTION ( 'NONE',  ( -1.000000000000000000, 0.000000000000000000, 0.000000000000000000 ) ) ;
#135 = EDGE_CURVE ( 'NONE', #26, #3, #197, .T. ) ;
#136 = CIRCLE ( 'NONE', #262, 4.700000000000000178 ) ;
#137 = ORIENTED_EDGE ( 'NONE', *, *, #230, .F. ) ;
#138 = DATE_TIME_ROLE ( 'creation_date' ) ;
#139 = EDGE_LOOP ( 'NONE', ( #137, #147, #243, #269 ) ) ;
#140 = ADVANCED_FACE ( 'NONE', ( #253 ), #207, .T. ) ;
#141 = LINE ( 'NONE', #21, #44 ) ;
#142 = DATE_AND_TIME ( #101, #52 ) ;
#143 = ORIENTED_EDGE ( 'NONE', *, *, #212, .T. ) ;
#144 = FACE_OUTER_BOUND ( 'NONE', #9, .T. ) ;
#145 = PRODUCT_DEFINITION ( 'NEZNÁMÝ', '', #29, #34 ) ;
#146 = PERSON_AND_ORGANIZATION ( #8, #249 ) ;
#147 = ORIENTED_EDGE ( 'NONE', *, *, #282, .F. ) ;
#148 = CC_DESIGN_PERSON_AND_ORGANIZATION_ASSIGNMENT ( #165, #91, ( #145 ) ) ;
#149 = ADVANCED_FACE ( 'NONE', ( #182 ), #252, .F. ) ;
#150 = LOCAL_TIME ( 11, 56, 32.00000000000000000, #161 ) ;
#151 = CIRCLE ( 'NONE', #200, 4.500000000000000888 ) ;
#152 = EDGE_CURVE ( 'NONE', #103, #124, #178, .T. ) ;
#153 = CC_DESIGN_APPROVAL ( #31, ( #29 ) ) ;
#154 = FACE_OUTER_BOUND ( 'NONE', #123, .T. ) ;
#155 = APPLICATION_PROTOCOL_DEFINITION ( 'international standard', 'config_control_design', 1994, #183 ) ;
#156 = UNCERTAINTY_MEASURE_WITH_UNIT (LENGTH_MEASURE( 1.000000000000000082E-05 ), #235, 'distance_accuracy_value', 'NONE');
#157 = DIRECTION ( 'NONE',  ( 1.000000000000000000, 0.000000000000000000, 0.000000000000000000 ) ) ;
#158 = MECHANICAL_CONTEXT ( 'NONE', #183, 'mechanical' ) ;
#159 = ADVANCED_FACE ( 'NONE', ( #40, #160 ), #128, .T. ) ;
#160 = FACE_OUTER_BOUND ( 'NONE', #260, .T. ) ;
#161 = COORDINATED_UNIVERSAL_TIME_OFFSET ( 1, 0, .AHEAD. ) ;
#162 = DIRECTION ( 'NONE',  ( -1.000000000000000000, 0.000000000000000000, 0.000000000000000000 ) ) ;
#163 = CARTESIAN_POINT ( 'NONE',  ( 0.000000000000000000, 0.000000000000000000, 5.000000000000000000 ) ) ;
#164 = DIRECTION ( 'NONE',  ( -0.000000000000000000, -0.000000000000000000, -1.000000000000000000 ) ) ;
#165 = PERSON_AND_ORGANIZATION ( #8, #249 ) ;
#166 = AXIS2_PLACEMENT_3D ( 'NONE', #62, #281, #296 ) ;
#167 = AXIS2_PLACEMENT_3D ( 'NONE', #163, #295, #134 ) ;
#168 = DIRECTION ( 'NONE',  ( 1.000000000000000000, 0.000000000000000000, 0.000000000000000000 ) ) ;
#169 = DIRECTION ( 'NONE',  ( 1.000000000000000000, 0.000000000000000000, 0.000000000000000000 ) ) ;
#170 = LOCAL_TIME ( 11, 56, 32.00000000000000000, #42 ) ;
#171 = DATE_AND_TIME ( #244, #57 ) ;
#172 = ORIENTED_EDGE ( 'NONE', *, *, #220, .T. ) ;
#173 = ORIENTED_EDGE ( 'NONE', *, *, #223, .T. ) ;
#174 = PERSON_AND_ORGANIZATION ( #8, #249 ) ;
#175 = CIRCLE ( 'NONE', #79, 0.1999999999999996503 ) ;
#176 = ORIENTED_EDGE ( 'NONE', *, *, #49, .T. ) ;
#177 = AXIS2_PLACEMENT_3D ( 'NONE', #278, #109, #67 ) ;
#178 = CIRCLE ( 'NONE', #166, 4.500000000000000888 ) ;
#179 = DIRECTION ( 'NONE',  ( 1.000000000000000000, 0.000000000000000000, 0.000000000000000000 ) ) ;
#180 = DIRECTION ( 'NONE',  ( 1.000000000000000000, 0.000000000000000000, 0.000000000000000000 ) ) ;
#181 =( GEOMETRIC_REPRESENTATION_CONTEXT ( 3 ) GLOBAL_UNCERTAINTY_ASSIGNED_CONTEXT ( ( #156 ) ) GLOBAL_UNIT_ASSIGNED_CONTEXT ( ( #235, #19, #58 ) ) REPRESENTATION_CONTEXT ( 'NONE', 'WORKASPACE' ) );
#182 = FACE_OUTER_BOUND ( 'NONE', #77, .T. ) ;
#183 = APPLICATION_CONTEXT ( 'configuration controlled 3d designs of mechanical parts and assemblies' ) ;
#184 = EDGE_CURVE ( 'NONE', #26, #228, #130, .T. ) ;
#185 = DIRECTION ( 'NONE',  ( 1.000000000000000000, 0.000000000000000000, 0.000000000000000000 ) ) ;
#186 = CALENDAR_DATE ( 2022, 7, 7 ) ;
#187 = CYLINDRICAL_SURFACE ( 'NONE', #177, 4.500000000000000888 ) ;
#188 = DIRECTION ( 'NONE',  ( 1.000000000000000000, 0.000000000000000000, 0.000000000000000000 ) ) ;
#189 = DIRECTION ( 'NONE',  ( -0.000000000000000000, -0.000000000000000000, -1.000000000000000000 ) ) ;
#190 = CARTESIAN_POINT ( 'NONE',  ( -4.700000000000000178, 5.755839955992559655E-16, 4.999999999999991118 ) ) ;
#191 = EDGE_LOOP ( 'NONE', ( #242, #126, #250, #122 ) ) ;
#192 = APPROVAL_DATE_TIME ( #80, #31 ) ;
#193 = CIRCLE ( 'NONE', #303, 0.1999999999999996503 ) ;
#194 = CARTESIAN_POINT ( 'NONE',  ( 0.000000000000000000, 0.000000000000000000, 5.000000000000000000 ) ) ;
#195 = ORIENTED_EDGE ( 'NONE', *, *, #277, .T. ) ;
#196 = SECURITY_CLASSIFICATION ( '', '', #25 ) ;
#197 = CIRCLE ( 'NONE', #83, 7.000000000000000000 ) ;
#198 = DIRECTION ( 'NONE',  ( -0.000000000000000000, -0.000000000000000000, -1.000000000000000000 ) ) ;
#199 = PERSON_AND_ORGANIZATION ( #8, #249 ) ;
#200 = AXIS2_PLACEMENT_3D ( 'NONE', #39, #37, #131 ) ;
#201 = MANIFOLD_SOLID_BREP ( 'Zaoblit1', #66 ) ;
#202 = VERTEX_POINT ( 'NONE', #132 ) ;
#203 = EDGE_CURVE ( 'NONE', #124, #202, #93, .T. ) ;
#204 = CIRCLE ( 'NONE', #113, 4.500000000000000888 ) ;
#205 = CARTESIAN_POINT ( 'NONE',  ( -4.500000000000000888, 0.000000000000000000, 405.0000000000000000 ) ) ;
#206 = DIRECTION ( 'NONE',  ( -0.000000000000000000, -0.000000000000000000, -1.000000000000000000 ) ) ;
#207 = CYLINDRICAL_SURFACE ( 'NONE', #47, 4.500000000000000888 ) ;
#208 = CARTESIAN_POINT ( 'NONE',  ( 0.000000000000000000, 0.000000000000000000, 5.000000000000000000 ) ) ;
#209 = CIRCLE ( 'NONE', #127, 4.500000000000000888 ) ;
#210 = CARTESIAN_POINT ( 'NONE',  ( 0.000000000000000000, 0.000000000000000000, 5.000000000000000000 ) ) ;
#211 = DIRECTION ( 'NONE',  ( 1.000000000000000000, 0.000000000000000000, 0.000000000000000000 ) ) ;
#212 = EDGE_CURVE ( 'NONE', #202, #292, #193, .T. ) ;
#213 = CARTESIAN_POINT ( 'NONE',  ( 0.000000000000000000, 0.000000000000000000, 5.000000000000000000 ) ) ;
#214 = PERSON_AND_ORGANIZATION ( #8, #249 ) ;
#215 = CARTESIAN_POINT ( 'NONE',  ( 4.700000000000000178, 0.000000000000000000, 4.999999999999991118 ) ) ;
#216 = ORIENTED_EDGE ( 'NONE', *, *, #282, .T. ) ;
#217 = APPROVAL_PERSON_ORGANIZATION ( #174, #284, #226 ) ;
#218 = CIRCLE ( 'NONE', #74, 4.700000000000000178 ) ;
#219 = ORIENTED_EDGE ( 'NONE', *, *, #135, .T. ) ;
#220 = EDGE_CURVE ( 'NONE', #265, #224, #175, .T. ) ;
#221 = APPLICATION_CONTEXT ( 'configuration controlled 3d designs of mechanical parts and assemblies' ) ;
#222 = ORIENTED_EDGE ( 'NONE', *, *, #72, .F. ) ;
#223 = EDGE_CURVE ( 'NONE', #3, #26, #28, .T. ) ;
#224 = VERTEX_POINT ( 'NONE', #215 ) ;
#225 = ORIENTED_EDGE ( 'NONE', *, *, #49, .F. ) ;
#226 = APPROVAL_ROLE ( '' ) ;
#227 = CC_DESIGN_DATE_AND_TIME_ASSIGNMENT ( #276, #138, ( #145 ) ) ;
#228 = VERTEX_POINT ( 'NONE', #305 ) ;
#229 = ORIENTED_EDGE ( 'NONE', *, *, #184, .T. ) ;
#230 = EDGE_CURVE ( 'NONE', #103, #265, #259, .T. ) ;
#231 = CARTESIAN_POINT ( 'NONE',  ( 4.700000000000000178, 0.000000000000000000, 5.199999999999982414 ) ) ;
#232 = CARTESIAN_POINT ( 'NONE',  ( 0.000000000000000000, 0.000000000000000000, 5.199999999999982414 ) ) ;
#233 = APPROVAL_ROLE ( '' ) ;
#234 = CARTESIAN_POINT ( 'NONE',  ( 7.000000000000000000, 8.572527594031473190E-16, 5.000000000000000000 ) ) ;
#235 =( LENGTH_UNIT ( ) NAMED_UNIT ( * ) SI_UNIT ( .MILLI., .METRE. ) );
#236 = APPROVAL_PERSON_ORGANIZATION ( #112, #55, #233 ) ;
#237 = DIRECTION ( 'NONE',  ( -0.000000000000000000, -0.000000000000000000, -1.000000000000000000 ) ) ;
#238 = DIRECTION ( 'NONE',  ( 0.000000000000000000, 0.000000000000000000, 1.000000000000000000 ) ) ;
#239 = DIRECTION ( 'NONE',  ( 0.000000000000000000, 0.000000000000000000, 1.000000000000000000 ) ) ;
#240 = DIRECTION ( 'NONE',  ( 0.000000000000000000, 0.000000000000000000, 1.000000000000000000 ) ) ;
#241 = PERSON_AND_ORGANIZATION ( #8, #249 ) ;
#242 = ORIENTED_EDGE ( 'NONE', *, *, #184, .F. ) ;
#243 = ORIENTED_EDGE ( 'NONE', *, *, #203, .T. ) ;
#244 = CALENDAR_DATE ( 2022, 7, 7 ) ;
#245 = EDGE_LOOP ( 'NONE', ( #104, #229, #283, #20 ) ) ;
#246 = DIRECTION ( 'NONE',  ( 0.000000000000000000, 0.000000000000000000, 1.000000000000000000 ) ) ;
#247 = EDGE_CURVE ( 'NONE', #265, #202, #151, .T. ) ;
#248 = ORIENTED_EDGE ( 'NONE', *, *, #203, .F. ) ;
#249 = ORGANIZATION ( 'NEURÈENÝ', 'NEURÈENÝ', '' ) ;
#250 = ORIENTED_EDGE ( 'NONE', *, *, #2, .T. ) ;
#251 = CC_DESIGN_APPROVAL ( #55, ( #145 ) ) ;
#252 = TOROIDAL_SURFACE ( 'NONE', #108, 4.700000000000000178, 0.2000000000000000111 ) ;
#253 = FACE_OUTER_BOUND ( 'NONE', #73, .T. ) ;
#254 = DIRECTION ( 'NONE',  ( 1.000000000000000000, 0.000000000000000000, 0.000000000000000000 ) ) ;
#255 = CARTESIAN_POINT ( 'NONE',  ( 4.500000000000000888, 5.510910596163089556E-16, 5.199999999999982414 ) ) ;
#256 = DIRECTION ( 'NONE',  ( 0.000000000000000000, 0.000000000000000000, 1.000000000000000000 ) ) ;
#257 = CYLINDRICAL_SURFACE ( 'NONE', #167, 7.000000000000000000 ) ;
#258 = CARTESIAN_POINT ( 'NONE',  ( -7.000000000000000000, 0.000000000000000000, 0.000000000000000000 ) ) ;
#259 = LINE ( 'NONE', #12, #70 ) ;
#260 = EDGE_LOOP ( 'NONE', ( #173, #219 ) ) ;
#261 = PERSON_AND_ORGANIZATION_ROLE ( 'creator' ) ;
#262 = AXIS2_PLACEMENT_3D ( 'NONE', #208, #271, #107 ) ;
#263 = CC_DESIGN_PERSON_AND_ORGANIZATION_ASSIGNMENT ( #289, #285, ( #29 ) ) ;
#264 = FACE_OUTER_BOUND ( 'NONE', #78, .T. ) ;
#265 = VERTEX_POINT ( 'NONE', #255 ) ;
#266 = SHAPE_DEFINITION_REPRESENTATION ( #125, #81 ) ;
#267 = PRODUCT_RELATED_PRODUCT_CATEGORY ( 'detail', '', ( #268 ) ) ;
#268 = PRODUCT ( '089a', '089a', '', ( #158 ) ) ;
#269 = ORIENTED_EDGE ( 'NONE', *, *, #72, .T. ) ;
#270 = FACE_OUTER_BOUND ( 'NONE', #191, .T. ) ;
#271 = DIRECTION ( 'NONE',  ( -0.000000000000000000, -0.000000000000000000, -1.000000000000000000 ) ) ;
#272 = EDGE_CURVE ( 'NONE', #228, #121, #54, .T. ) ;
#273 = DIRECTION ( 'NONE',  ( 0.000000000000000000, 0.000000000000000000, 1.000000000000000000 ) ) ;
#274 = ADVANCED_FACE ( 'NONE', ( #65 ), #257, .T. ) ;
#275 = DIRECTION ( 'NONE',  ( 0.000000000000000000, 0.000000000000000000, 1.000000000000000000 ) ) ;
#276 = DATE_AND_TIME ( #186, #170 ) ;
#277 = EDGE_CURVE ( 'NONE', #224, #292, #136, .T. ) ;
#278 = CARTESIAN_POINT ( 'NONE',  ( 0.000000000000000000, 0.000000000000000000, 405.0000000000000000 ) ) ;
#279 = APPLICATION_PROTOCOL_DEFINITION ( 'international standard', 'config_control_design', 1994, #221 ) ;
#280 = AXIS2_PLACEMENT_3D ( 'NONE', #119, #306, #88 ) ;
#281 = DIRECTION ( 'NONE',  ( 0.000000000000000000, 0.000000000000000000, 1.000000000000000000 ) ) ;
#282 = EDGE_CURVE ( 'NONE', #124, #103, #209, .T. ) ;
#283 = ORIENTED_EDGE ( 'NONE', *, *, #272, .T. ) ;
#284 = APPROVAL ( #22, 'NEURÈENÝ' ) ;
#285 = PERSON_AND_ORGANIZATION_ROLE ( 'design_supplier' ) ;
#286 = DIRECTION ( 'NONE',  ( -0.000000000000000000, -0.000000000000000000, -1.000000000000000000 ) ) ;
#287 = EDGE_LOOP ( 'NONE', ( #195, #176 ) ) ;
#288 = AXIS2_PLACEMENT_3D ( 'NONE', #210, #114, #106 ) ;
#289 = PERSON_AND_ORGANIZATION ( #8, #249 ) ;
#290 = CARTESIAN_POINT ( 'NONE',  ( 0.000000000000000000, 0.000000000000000000, 0.000000000000000000 ) ) ;
#291 = DATE_TIME_ROLE ( 'classification_date' ) ;
#292 = VERTEX_POINT ( 'NONE', #190 ) ;
#293 = AXIS2_PLACEMENT_3D ( 'NONE', #117, #275, #179 ) ;
#294 = CARTESIAN_POINT ( 'NONE',  ( 0.000000000000000000, 0.000000000000000000, 5.199999999999982414 ) ) ;
#295 = DIRECTION ( 'NONE',  ( -0.000000000000000000, -0.000000000000000000, -1.000000000000000000 ) ) ;
#296 = DIRECTION ( 'NONE',  ( 1.000000000000000000, 0.000000000000000000, 0.000000000000000000 ) ) ;
#297 = CARTESIAN_POINT ( 'NONE',  ( 0.000000000000000000, 0.000000000000000000, 405.0000000000000000 ) ) ;
#298 = AXIS2_PLACEMENT_3D ( 'NONE', #16, #33, #180 ) ;
#299 = AXIS2_PLACEMENT_3D ( 'NONE', #69, #246, #24 ) ;
#300 = DIRECTION ( 'NONE',  ( 0.000000000000000000, -1.000000000000000000, 0.000000000000000000 ) ) ;
#301 = COORDINATED_UNIVERSAL_TIME_OFFSET ( 1, 0, .AHEAD. ) ;
#302 = DIRECTION ( 'NONE',  ( 0.000000000000000000, 0.000000000000000000, 1.000000000000000000 ) ) ;
#303 = AXIS2_PLACEMENT_3D ( 'NONE', #15, #111, #38 ) ;
#304 = VECTOR ( 'NONE', #237, 1000.000000000000000 ) ;
#305 = CARTESIAN_POINT ( 'NONE',  ( 7.000000000000000000, 8.572527594031473190E-16, 0.000000000000000000 ) ) ;
#306 = DIRECTION ( 'NONE',  ( 0.000000000000000000, 0.000000000000000000, 1.000000000000000000 ) ) ;
#307 = CALENDAR_DATE ( 2022, 7, 7 ) ;
ENDSEC;
END-ISO-10303-21;
