ISO-10303-21;
HEADER;
FILE_DESCRIPTION (( 'STEP AP203' ),
    '1' );
FILE_NAME ('123d.STEP',
    '2022-07-10T12:29:11',
    ( '' ),
    ( '' ),
    'SwSTEP 2.0',
    'SolidWorks 2019',
    '' );
FILE_SCHEMA (( 'CONFIG_CONTROL_DESIGN' ));
ENDSEC;

DATA;
#1 = CARTESIAN_POINT ( 'NONE',  ( 0.000000000000000000, 0.000000000000000000, 1.199999999999999956 ) ) ;
#2 = DATE_AND_TIME ( #140, #156 ) ;
#3 = EDGE_CURVE ( 'NONE', #271, #243, #146, .T. ) ;
#4 = APPROVAL_STATUS ( 'not_yet_approved' ) ;
#5 = APPROVAL ( #4, 'NEURÈENÝ' ) ;
#6 = APPROVAL_ROLE ( '' ) ;
#7 = CIRCLE ( 'NONE', #209, 1.250000000000000000 ) ;
#8 = ORIENTED_EDGE ( 'NONE', *, *, #232, .F. ) ;
#9 = ORIENTED_EDGE ( 'NONE', *, *, #278, .T. ) ;
#10 = ORIENTED_EDGE ( 'NONE', *, *, #3, .T. ) ;
#11 = EDGE_CURVE ( 'NONE', #273, #55, #96, .T. ) ;
#12 = DIRECTION ( 'NONE',  ( 0.000000000000000000, 0.000000000000000000, 1.000000000000000000 ) ) ;
#13 = ORIENTED_EDGE ( 'NONE', *, *, #88, .F. ) ;
#14 = EDGE_LOOP ( 'NONE', ( #10, #176 ) ) ;
#15 = CARTESIAN_POINT ( 'NONE',  ( 1.250000000000000000, 1.530808498934191571E-16, 0.000000000000000000 ) ) ;
#16 = DIRECTION ( 'NONE',  ( -1.000000000000000000, 0.000000000000000000, 0.000000000000000000 ) ) ;
#17 = CARTESIAN_POINT ( 'NONE',  ( 1.250000000000000000, 1.530808498934191571E-16, 1.199999999999999956 ) ) ;
#18 = EDGE_LOOP ( 'NONE', ( #30, #99, #49, #8 ) ) ;
#19 = LINE ( 'NONE', #162, #275 ) ;
#20 = DIRECTION ( 'NONE',  ( -0.000000000000000000, -0.000000000000000000, -1.000000000000000000 ) ) ;
#21 =( LENGTH_UNIT ( ) NAMED_UNIT ( * ) SI_UNIT ( .MILLI., .METRE. ) );
#22 = VECTOR ( 'NONE', #306, 1000.000000000000000 ) ;
#23 = APPROVAL_STATUS ( 'not_yet_approved' ) ;
#24 = ADVANCED_FACE ( 'NONE', ( #109 ), #159, .F. ) ;
#25 = PERSON_AND_ORGANIZATION ( #163, #46 ) ;
#26 = VECTOR ( 'NONE', #304, 1000.000000000000000 ) ;
#27 = DESIGN_CONTEXT ( 'detailed design', #81, 'design' ) ;
#28 = CC_DESIGN_SECURITY_CLASSIFICATION ( #257, ( #153 ) ) ;
#29 = COORDINATED_UNIVERSAL_TIME_OFFSET ( 1, 0, .AHEAD. ) ;
#30 = ORIENTED_EDGE ( 'NONE', *, *, #11, .F. ) ;
#31 = EDGE_LOOP ( 'NONE', ( #77, #170, #102, #100 ) ) ;
#32 = ADVANCED_FACE ( 'NONE', ( #246 ), #297, .T. ) ;
#33 = CYLINDRICAL_SURFACE ( 'NONE', #57, 0.5000000000000000000 ) ;
#34 = VERTEX_POINT ( 'NONE', #224 ) ;
#35 = AXIS2_PLACEMENT_3D ( 'NONE', #207, #39, #180 ) ;
#36 = DIRECTION ( 'NONE',  ( 1.000000000000000000, 0.000000000000000000, 0.000000000000000000 ) ) ;
#37 = DIRECTION ( 'NONE',  ( 0.000000000000000000, 0.000000000000000000, 1.000000000000000000 ) ) ;
#38 = DIRECTION ( 'NONE',  ( 0.000000000000000000, 0.000000000000000000, 1.000000000000000000 ) ) ;
#39 = DIRECTION ( 'NONE',  ( 0.000000000000000000, 0.000000000000000000, 1.000000000000000000 ) ) ;
#40 = LOCAL_TIME ( 14, 29, 11.00000000000000000, #167 ) ;
#41 = DIRECTION ( 'NONE',  ( 1.000000000000000000, 0.000000000000000000, 0.000000000000000000 ) ) ;
#42 = FACE_OUTER_BOUND ( 'NONE', #14, .T. ) ;
#43 = DIRECTION ( 'NONE',  ( 1.000000000000000000, 0.000000000000000000, 0.000000000000000000 ) ) ;
#44 = DIRECTION ( 'NONE',  ( 1.000000000000000000, 0.000000000000000000, -0.000000000000000000 ) ) ;
#45 = APPROVAL_ROLE ( '' ) ;
#46 = ORGANIZATION ( 'NEURÈENÝ', 'NEURÈENÝ', '' ) ;
#47 = CALENDAR_DATE ( 2022, 10, 7 ) ;
#48 = CIRCLE ( 'NONE', #89, 0.2000000000000000944 ) ;
#49 = ORIENTED_EDGE ( 'NONE', *, *, #198, .F. ) ;
#50 = PRODUCT_DEFINITION ( 'NEZNÁMÝ', '', #153, #27 ) ;
#51 = EDGE_LOOP ( 'NONE', ( #13, #293, #105, #122 ) ) ;
#52 = ADVANCED_FACE ( 'NONE', ( #178 ), #112, .T. ) ;
#53 = ORIENTED_EDGE ( 'NONE', *, *, #286, .T. ) ;
#54 = DIRECTION ( 'NONE',  ( 0.000000000000000000, 0.000000000000000000, 1.000000000000000000 ) ) ;
#55 = VERTEX_POINT ( 'NONE', #56 ) ;
#56 = CARTESIAN_POINT ( 'NONE',  ( 0.5000000000000000000, 6.123233995736766036E-17, 1.399999999999998579 ) ) ;
#57 = AXIS2_PLACEMENT_3D ( 'NONE', #63, #303, #248 ) ;
#58 = CARTESIAN_POINT ( 'NONE',  ( -1.250000000000000000, 0.000000000000000000, 0.000000000000000000 ) ) ;
#59 = DIRECTION ( 'NONE',  ( -0.000000000000000000, -0.000000000000000000, -1.000000000000000000 ) ) ;
#60 = DIRECTION ( 'NONE',  ( 0.000000000000000000, 0.000000000000000000, 1.000000000000000000 ) ) ;
#61 = DIRECTION ( 'NONE',  ( -0.000000000000000000, -0.000000000000000000, -1.000000000000000000 ) ) ;
#62 = CARTESIAN_POINT ( 'NONE',  ( 0.000000000000000000, 0.000000000000000000, 1.199999999999999956 ) ) ;
#63 = CARTESIAN_POINT ( 'NONE',  ( 0.000000000000000000, 0.000000000000000000, 101.2000000000000171 ) ) ;
#64 = CIRCLE ( 'NONE', #120, 0.5000000000000000000 ) ;
#65 = CARTESIAN_POINT ( 'NONE',  ( 0.5000000000000000000, 6.123233995736766036E-17, 101.2000000000000171 ) ) ;
#66 = CARTESIAN_POINT ( 'NONE',  ( 0.000000000000000000, 0.000000000000000000, 1.199999999999999956 ) ) ;
#67 = PERSON_AND_ORGANIZATION_ROLE ( 'creator' ) ;
#68 = APPLICATION_CONTEXT ( 'configuration controlled 3d designs of mechanical parts and assemblies' ) ;
#69 = EDGE_CURVE ( 'NONE', #220, #222, #298, .T. ) ;
#70 = PERSON_AND_ORGANIZATION ( #163, #46 ) ;
#71 = APPROVAL_DATE_TIME ( #261, #5 ) ;
#72 = APPLICATION_PROTOCOL_DEFINITION ( 'international standard', 'config_control_design', 1994, #68 ) ;
#73 = CIRCLE ( 'NONE', #115, 0.6999999999999999556 ) ;
#74 = CARTESIAN_POINT ( 'NONE',  ( 0.000000000000000000, 0.000000000000000000, 0.000000000000000000 ) ) ;
#75 = ORIENTED_EDGE ( 'NONE', *, *, #175, .T. ) ;
#76 = CIRCLE ( 'NONE', #35, 1.250000000000000000 ) ;
#77 = ORIENTED_EDGE ( 'NONE', *, *, #211, .F. ) ;
#78 = CC_DESIGN_PERSON_AND_ORGANIZATION_ASSIGNMENT ( #164, #283, ( #153 ) ) ;
#79 = FACE_OUTER_BOUND ( 'NONE', #126, .T. ) ;
#80 = ORIENTED_EDGE ( 'NONE', *, *, #88, .T. ) ;
#81 = APPLICATION_CONTEXT ( 'configuration controlled 3d designs of mechanical parts and assemblies' ) ;
#82 = CARTESIAN_POINT ( 'NONE',  ( 0.000000000000000000, 0.000000000000000000, 0.000000000000000000 ) ) ;
#83 = DIRECTION ( 'NONE',  ( 0.000000000000000000, 0.000000000000000000, 1.000000000000000000 ) ) ;
#84 = CARTESIAN_POINT ( 'NONE',  ( 0.000000000000000000, 0.000000000000000000, 0.000000000000000000 ) ) ;
#85 = DIRECTION ( 'NONE',  ( 0.000000000000000000, 0.000000000000000000, 1.000000000000000000 ) ) ;
#86 = LOCAL_TIME ( 14, 29, 11.00000000000000000, #237 ) ;
#87 = DIRECTION ( 'NONE',  ( 1.000000000000000000, 0.000000000000000000, 0.000000000000000000 ) ) ;
#88 = EDGE_CURVE ( 'NONE', #263, #222, #276, .T. ) ;
#89 = AXIS2_PLACEMENT_3D ( 'NONE', #253, #185, #256 ) ;
#90 = CARTESIAN_POINT ( 'NONE',  ( 0.5000000000000000000, 6.123233995736766036E-17, 101.2000000000000171 ) ) ;
#91 = CARTESIAN_POINT ( 'NONE',  ( 0.000000000000000000, 0.000000000000000000, 101.2000000000000171 ) ) ;
#92 = CC_DESIGN_DATE_AND_TIME_ASSIGNMENT ( #218, #238, ( #257 ) ) ;
#93 = CALENDAR_DATE ( 2022, 10, 7 ) ;
#94 = APPROVAL_PERSON_ORGANIZATION ( #259, #244, #6 ) ;
#95 = PERSON_AND_ORGANIZATION ( #163, #46 ) ;
#96 = CIRCLE ( 'NONE', #119, 0.5000000000000000000 ) ;
#97 = CIRCLE ( 'NONE', #186, 0.6999999999999999556 ) ;
#98 = ADVANCED_FACE ( 'NONE', ( #230, #79 ), #205, .T. ) ;
#99 = ORIENTED_EDGE ( 'NONE', *, *, #211, .T. ) ;
#100 = ORIENTED_EDGE ( 'NONE', *, *, #239, .F. ) ;
#101 = ADVANCED_FACE ( 'NONE', ( #301 ), #33, .T. ) ;
#102 = ORIENTED_EDGE ( 'NONE', *, *, #232, .T. ) ;
#103 = AXIS2_PLACEMENT_3D ( 'NONE', #111, #300, #44 ) ;
#104 = DIRECTION ( 'NONE',  ( -0.000000000000000000, -0.000000000000000000, -1.000000000000000000 ) ) ;
#105 = ORIENTED_EDGE ( 'NONE', *, *, #219, .T. ) ;
#106 = MANIFOLD_SOLID_BREP ( 'Zaoblit1', #287 ) ;
#107 = DIRECTION ( 'NONE',  ( -0.000000000000000000, -0.000000000000000000, -1.000000000000000000 ) ) ;
#108 = CARTESIAN_POINT ( 'NONE',  ( -0.5000000000000000000, 0.000000000000000000, 101.2000000000000171 ) ) ;
#109 = FACE_OUTER_BOUND ( 'NONE', #18, .T. ) ;
#110 = ADVANCED_FACE ( 'NONE', ( #158 ), #201, .F. ) ;
#111 = CARTESIAN_POINT ( 'NONE',  ( 0.000000000000000000, 0.000000000000000000, 101.2000000000000171 ) ) ;
#112 = CYLINDRICAL_SURFACE ( 'NONE', #179, 1.250000000000000000 ) ;
#113 = DIRECTION ( 'NONE',  ( 1.000000000000000000, 0.000000000000000000, 0.000000000000000000 ) ) ;
#114 = CARTESIAN_POINT ( 'NONE',  ( 0.000000000000000000, 0.000000000000000000, 1.399999999999998579 ) ) ;
#115 = AXIS2_PLACEMENT_3D ( 'NONE', #66, #183, #113 ) ;
#116 = DIRECTION ( 'NONE',  ( 1.000000000000000000, 0.000000000000000000, 0.000000000000000000 ) ) ;
#117 = COORDINATED_UNIVERSAL_TIME_OFFSET ( 1, 0, .AHEAD. ) ;
#118 = CALENDAR_DATE ( 2022, 10, 7 ) ;
#119 = AXIS2_PLACEMENT_3D ( 'NONE', #228, #85, #242 ) ;
#120 = AXIS2_PLACEMENT_3D ( 'NONE', #114, #60, #129 ) ;
#121 = ADVANCED_FACE ( 'NONE', ( #144 ), #181, .T. ) ;
#122 = ORIENTED_EDGE ( 'NONE', *, *, #69, .T. ) ;
#123 = PERSON_AND_ORGANIZATION ( #163, #46 ) ;
#124 = ORIENTED_EDGE ( 'NONE', *, *, #11, .T. ) ;
#125 = CARTESIAN_POINT ( 'NONE',  ( 1.250000000000000000, 1.530808498934191571E-16, 1.199999999999999956 ) ) ;
#126 = EDGE_LOOP ( 'NONE', ( #75, #296 ) ) ;
#127 =( GEOMETRIC_REPRESENTATION_CONTEXT ( 3 ) GLOBAL_UNCERTAINTY_ASSIGNED_CONTEXT ( ( #215 ) ) GLOBAL_UNIT_ASSIGNED_CONTEXT ( ( #21, #250, #210 ) ) REPRESENTATION_CONTEXT ( 'NONE', 'WORKASPACE' ) );
#128 = ORIENTED_EDGE ( 'NONE', *, *, #151, .F. ) ;
#129 = DIRECTION ( 'NONE',  ( 1.000000000000000000, 0.000000000000000000, 0.000000000000000000 ) ) ;
#130 = CARTESIAN_POINT ( 'NONE',  ( 0.000000000000000000, 0.000000000000000000, 1.199999999999999956 ) ) ;
#131 = APPROVAL_PERSON_ORGANIZATION ( #25, #5, #191 ) ;
#132 = CARTESIAN_POINT ( 'NONE',  ( -1.250000000000000000, 0.000000000000000000, 1.199999999999999956 ) ) ;
#133 = EDGE_LOOP ( 'NONE', ( #145, #200 ) ) ;
#134 = CARTESIAN_POINT ( 'NONE',  ( -0.6999999999999999556, 8.572527594031471957E-17, 1.399999999999998579 ) ) ;
#135 = DIRECTION ( 'NONE',  ( 1.000000000000000000, 0.000000000000000000, 0.000000000000000000 ) ) ;
#136 = CC_DESIGN_PERSON_AND_ORGANIZATION_ASSIGNMENT ( #123, #260, ( #257 ) ) ;
#137 = DIRECTION ( 'NONE',  ( 1.224646799147353207E-16, 1.000000000000000000, -0.000000000000000000 ) ) ;
#138 = AXIS2_PLACEMENT_3D ( 'NONE', #134, #137, #157 ) ;
#139 = APPROVAL_DATE_TIME ( #165, #212 ) ;
#140 = CALENDAR_DATE ( 2022, 10, 7 ) ;
#141 = EDGE_CURVE ( 'NONE', #271, #273, #149, .T. ) ;
#142 = EDGE_LOOP ( 'NONE', ( #292, #80, #9, #217 ) ) ;
#143 = EDGE_LOOP ( 'NONE', ( #226, #289 ) ) ;
#144 = FACE_OUTER_BOUND ( 'NONE', #51, .T. ) ;
#145 = ORIENTED_EDGE ( 'NONE', *, *, #198, .T. ) ;
#146 = CIRCLE ( 'NONE', #267, 0.5000000000000000000 ) ;
#147 = ORIENTED_EDGE ( 'NONE', *, *, #141, .F. ) ;
#148 = AXIS2_PLACEMENT_3D ( 'NONE', #130, #150, #204 ) ;
#149 = LINE ( 'NONE', #154, #22 ) ;
#150 = DIRECTION ( 'NONE',  ( 0.000000000000000000, 0.000000000000000000, 1.000000000000000000 ) ) ;
#151 = EDGE_CURVE ( 'NONE', #243, #55, #231, .T. ) ;
#152 = PRODUCT_DEFINITION_SHAPE ( 'NONE', 'NONE',  #50 ) ;
#153 = PRODUCT_DEFINITION_FORMATION_WITH_SPECIFIED_SOURCE ( 'LIBOVOLNÝ', '', #247, .NOT_KNOWN. ) ;
#154 = CARTESIAN_POINT ( 'NONE',  ( -0.5000000000000000000, 0.000000000000000000, 101.2000000000000171 ) ) ;
#155 = DIRECTION ( 'NONE',  ( 1.000000000000000000, 0.000000000000000000, 0.000000000000000000 ) ) ;
#156 = LOCAL_TIME ( 14, 29, 11.00000000000000000, #29 ) ;
#157 = DIRECTION ( 'NONE',  ( -1.000000000000000000, 1.224646799147352714E-16, 0.000000000000000000 ) ) ;
#158 = FACE_OUTER_BOUND ( 'NONE', #143, .T. ) ;
#159 = TOROIDAL_SURFACE ( 'NONE', #274, 0.6999999999999999556, 0.2000000000000000111 ) ;
#160 = CARTESIAN_POINT ( 'NONE',  ( 0.6999999999999999556, 0.000000000000000000, 1.199999999999999289 ) ) ;
#161 = CC_DESIGN_PERSON_AND_ORGANIZATION_ASSIGNMENT ( #188, #67, ( #50 ) ) ;
#162 = CARTESIAN_POINT ( 'NONE',  ( -1.250000000000000000, 0.000000000000000000, 1.199999999999999956 ) ) ;
#163 = PERSON ( 'NEURÈENÝ', 'NEURÈENÝ', 'NEURÈENÝ', ('NEURÈENÝ'), ('NEURÈENÝ'), ('NEURÈENÝ') ) ;
#164 = PERSON_AND_ORGANIZATION ( #163, #46 ) ;
#165 = DATE_AND_TIME ( #93, #221 ) ;
#166 = DATE_TIME_ROLE ( 'creation_date' ) ;
#167 = COORDINATED_UNIVERSAL_TIME_OFFSET ( 1, 0, .AHEAD. ) ;
#168 = AXIS2_PLACEMENT_3D ( 'NONE', #84, #38, #270 ) ;
#169 = CC_DESIGN_PERSON_AND_ORGANIZATION_ASSIGNMENT ( #95, #190, ( #153 ) ) ;
#170 = ORIENTED_EDGE ( 'NONE', *, *, #286, .F. ) ;
#171 = DATE_AND_TIME ( #118, #86 ) ;
#172 = ORIENTED_EDGE ( 'NONE', *, *, #151, .T. ) ;
#173 = VERTEX_POINT ( 'NONE', #132 ) ;
#174 = CARTESIAN_POINT ( 'NONE',  ( 0.000000000000000000, 0.000000000000000000, 1.199999999999999956 ) ) ;
#175 = EDGE_CURVE ( 'NONE', #173, #263, #7, .T. ) ;
#176 = ORIENTED_EDGE ( 'NONE', *, *, #299, .T. ) ;
#177 = AXIS2_PLACEMENT_3D ( 'NONE', #184, #61, #251 ) ;
#178 = FACE_OUTER_BOUND ( 'NONE', #142, .T. ) ;
#179 = AXIS2_PLACEMENT_3D ( 'NONE', #174, #107, #16 ) ;
#180 = DIRECTION ( 'NONE',  ( 1.000000000000000000, 0.000000000000000000, 0.000000000000000000 ) ) ;
#181 = CYLINDRICAL_SURFACE ( 'NONE', #223, 1.250000000000000000 ) ;
#182 = ADVANCED_BREP_SHAPE_REPRESENTATION ( '123d', ( #106, #206 ), #127 ) ;
#183 = DIRECTION ( 'NONE',  ( -0.000000000000000000, -0.000000000000000000, -1.000000000000000000 ) ) ;
#184 = CARTESIAN_POINT ( 'NONE',  ( 0.000000000000000000, 0.000000000000000000, 101.2000000000000171 ) ) ;
#185 = DIRECTION ( 'NONE',  ( 0.000000000000000000, -1.000000000000000000, 0.000000000000000000 ) ) ;
#186 = AXIS2_PLACEMENT_3D ( 'NONE', #62, #280, #135 ) ;
#187 = CARTESIAN_POINT ( 'NONE',  ( 0.000000000000000000, 0.000000000000000000, 1.399999999999998579 ) ) ;
#188 = PERSON_AND_ORGANIZATION ( #163, #46 ) ;
#189 = ADVANCED_FACE ( 'NONE', ( #227 ), #193, .F. ) ;
#190 = PERSON_AND_ORGANIZATION_ROLE ( 'creator' ) ;
#191 = APPROVAL_ROLE ( '' ) ;
#192 = CC_DESIGN_DATE_AND_TIME_ASSIGNMENT ( #171, #166, ( #50 ) ) ;
#193 = TOROIDAL_SURFACE ( 'NONE', #235, 0.6999999999999999556, 0.2000000000000000111 ) ;
#194 = DIRECTION ( 'NONE',  ( 0.000000000000000000, 0.000000000000000000, 1.000000000000000000 ) ) ;
#195 = EDGE_LOOP ( 'NONE', ( #225, #172, #53, #147 ) ) ;
#196 = ORIENTED_EDGE ( 'NONE', *, *, #3, .F. ) ;
#197 = CC_DESIGN_APPROVAL ( #244, ( #153 ) ) ;
#198 = EDGE_CURVE ( 'NONE', #268, #34, #97, .T. ) ;
#199 = CIRCLE ( 'NONE', #138, 0.1999999999999999833 ) ;
#200 = ORIENTED_EDGE ( 'NONE', *, *, #239, .T. ) ;
#201 = PLANE ( 'NONE',  #168 ) ;
#202 = DIRECTION ( 'NONE',  ( 0.000000000000000000, 0.000000000000000000, 1.000000000000000000 ) ) ;
#203 = CARTESIAN_POINT ( 'NONE',  ( 0.000000000000000000, 0.000000000000000000, 0.000000000000000000 ) ) ;
#204 = DIRECTION ( 'NONE',  ( 1.000000000000000000, 0.000000000000000000, -0.000000000000000000 ) ) ;
#205 = PLANE ( 'NONE',  #148 ) ;
#206 = AXIS2_PLACEMENT_3D ( 'NONE', #74, #194, #290 ) ;
#207 = CARTESIAN_POINT ( 'NONE',  ( 0.000000000000000000, 0.000000000000000000, 1.199999999999999956 ) ) ;
#208 = CARTESIAN_POINT ( 'NONE',  ( -0.5000000000000000000, 0.000000000000000000, 1.399999999999998579 ) ) ;
#209 = AXIS2_PLACEMENT_3D ( 'NONE', #1, #302, #229 ) ;
#210 =( NAMED_UNIT ( * ) SI_UNIT ( $, .STERADIAN. ) SOLID_ANGLE_UNIT ( ) );
#211 = EDGE_CURVE ( 'NONE', #273, #34, #199, .T. ) ;
#212 = APPROVAL ( #240, 'NEURÈENÝ' ) ;
#213 = PERSON_AND_ORGANIZATION_ROLE ( 'design_owner' ) ;
#214 = CALENDAR_DATE ( 2022, 10, 7 ) ;
#215 = UNCERTAINTY_MEASURE_WITH_UNIT (LENGTH_MEASURE( 1.000000000000000082E-05 ), #21, 'distance_accuracy_value', 'NONE');
#216 = COORDINATED_UNIVERSAL_TIME_OFFSET ( 1, 0, .AHEAD. ) ;
#217 = ORIENTED_EDGE ( 'NONE', *, *, #219, .F. ) ;
#218 = DATE_AND_TIME ( #47, #265 ) ;
#219 = EDGE_CURVE ( 'NONE', #173, #220, #19, .T. ) ;
#220 = VERTEX_POINT ( 'NONE', #58 ) ;
#221 = LOCAL_TIME ( 14, 29, 11.00000000000000000, #216 ) ;
#222 = VERTEX_POINT ( 'NONE', #15 ) ;
#223 = AXIS2_PLACEMENT_3D ( 'NONE', #277, #104, #295 ) ;
#224 = CARTESIAN_POINT ( 'NONE',  ( -0.6999999999999999556, 8.572527594031473190E-17, 1.199999999999999289 ) ) ;
#225 = ORIENTED_EDGE ( 'NONE', *, *, #299, .F. ) ;
#226 = ORIENTED_EDGE ( 'NONE', *, *, #69, .F. ) ;
#227 = FACE_OUTER_BOUND ( 'NONE', #31, .T. ) ;
#228 = CARTESIAN_POINT ( 'NONE',  ( 0.000000000000000000, 0.000000000000000000, 1.399999999999998579 ) ) ;
#229 = DIRECTION ( 'NONE',  ( 1.000000000000000000, 0.000000000000000000, 0.000000000000000000 ) ) ;
#230 = FACE_BOUND ( 'NONE', #133, .T. ) ;
#231 = LINE ( 'NONE', #90, #26 ) ;
#232 = EDGE_CURVE ( 'NONE', #55, #268, #48, .T. ) ;
#233 = PLANE ( 'NONE',  #103 ) ;
#234 = ADVANCED_FACE ( 'NONE', ( #42 ), #233, .T. ) ;
#235 = AXIS2_PLACEMENT_3D ( 'NONE', #187, #282, #43 ) ;
#236 = MECHANICAL_CONTEXT ( 'NONE', #68, 'mechanical' ) ;
#237 = COORDINATED_UNIVERSAL_TIME_OFFSET ( 1, 0, .AHEAD. ) ;
#238 = DATE_TIME_ROLE ( 'classification_date' ) ;
#239 = EDGE_CURVE ( 'NONE', #34, #268, #73, .T. ) ;
#240 = APPROVAL_STATUS ( 'not_yet_approved' ) ;
#241 = EDGE_LOOP ( 'NONE', ( #128, #196, #266, #124 ) ) ;
#242 = DIRECTION ( 'NONE',  ( 1.000000000000000000, 0.000000000000000000, 0.000000000000000000 ) ) ;
#243 = VERTEX_POINT ( 'NONE', #65 ) ;
#244 = APPROVAL ( #23, 'NEURÈENÝ' ) ;
#245 = AXIS2_PLACEMENT_3D ( 'NONE', #82, #12, #41 ) ;
#246 = FACE_OUTER_BOUND ( 'NONE', #241, .T. ) ;
#247 = PRODUCT ( '123d', '123d', '', ( #236 ) ) ;
#248 = DIRECTION ( 'NONE',  ( -1.000000000000000000, 0.000000000000000000, 0.000000000000000000 ) ) ;
#249 = APPROVAL_PERSON_ORGANIZATION ( #258, #212, #45 ) ;
#250 =( NAMED_UNIT ( * ) PLANE_ANGLE_UNIT ( ) SI_UNIT ( $, .RADIAN. ) );
#251 = DIRECTION ( 'NONE',  ( -1.000000000000000000, 0.000000000000000000, 0.000000000000000000 ) ) ;
#252 = CC_DESIGN_APPROVAL ( #5, ( #257 ) ) ;
#253 = CARTESIAN_POINT ( 'NONE',  ( 0.6999999999999999556, 0.000000000000000000, 1.399999999999998579 ) ) ;
#254 = CIRCLE ( 'NONE', #288, 1.250000000000000000 ) ;
#255 = EDGE_CURVE ( 'NONE', #263, #173, #76, .T. ) ;
#256 = DIRECTION ( 'NONE',  ( 0.000000000000000000, 0.000000000000000000, -1.000000000000000000 ) ) ;
#257 = SECURITY_CLASSIFICATION ( '', '', #285 ) ;
#258 = PERSON_AND_ORGANIZATION ( #163, #46 ) ;
#259 = PERSON_AND_ORGANIZATION ( #163, #46 ) ;
#260 = PERSON_AND_ORGANIZATION_ROLE ( 'classification_officer' ) ;
#261 = DATE_AND_TIME ( #214, #40 ) ;
#262 = SHAPE_DEFINITION_REPRESENTATION ( #152, #182 ) ;
#263 = VERTEX_POINT ( 'NONE', #17 ) ;
#264 = APPROVAL_DATE_TIME ( #2, #244 ) ;
#265 = LOCAL_TIME ( 14, 29, 11.00000000000000000, #117 ) ;
#266 = ORIENTED_EDGE ( 'NONE', *, *, #141, .T. ) ;
#267 = AXIS2_PLACEMENT_3D ( 'NONE', #272, #202, #36 ) ;
#268 = VERTEX_POINT ( 'NONE', #160 ) ;
#269 = CC_DESIGN_PERSON_AND_ORGANIZATION_ASSIGNMENT ( #70, #213, ( #247 ) ) ;
#270 = DIRECTION ( 'NONE',  ( 1.000000000000000000, 0.000000000000000000, -0.000000000000000000 ) ) ;
#271 = VERTEX_POINT ( 'NONE', #108 ) ;
#272 = CARTESIAN_POINT ( 'NONE',  ( 0.000000000000000000, 0.000000000000000000, 101.2000000000000171 ) ) ;
#273 = VERTEX_POINT ( 'NONE', #208 ) ;
#274 = AXIS2_PLACEMENT_3D ( 'NONE', #279, #54, #155 ) ;
#275 = VECTOR ( 'NONE', #20, 1000.000000000000000 ) ;
#276 = LINE ( 'NONE', #125, #307 ) ;
#277 = CARTESIAN_POINT ( 'NONE',  ( 0.000000000000000000, 0.000000000000000000, 1.199999999999999956 ) ) ;
#278 = EDGE_CURVE ( 'NONE', #222, #220, #254, .T. ) ;
#279 = CARTESIAN_POINT ( 'NONE',  ( 0.000000000000000000, 0.000000000000000000, 1.399999999999998579 ) ) ;
#280 = DIRECTION ( 'NONE',  ( -0.000000000000000000, -0.000000000000000000, -1.000000000000000000 ) ) ;
#281 = AXIS2_PLACEMENT_3D ( 'NONE', #91, #83, #116 ) ;
#282 = DIRECTION ( 'NONE',  ( 0.000000000000000000, 0.000000000000000000, 1.000000000000000000 ) ) ;
#283 = PERSON_AND_ORGANIZATION_ROLE ( 'design_supplier' ) ;
#284 = APPLICATION_PROTOCOL_DEFINITION ( 'international standard', 'config_control_design', 1994, #81 ) ;
#285 = SECURITY_CLASSIFICATION_LEVEL ( 'unclassified' ) ;
#286 = EDGE_CURVE ( 'NONE', #55, #273, #64, .T. ) ;
#287 = CLOSED_SHELL ( 'NONE', ( #24, #101, #52, #121, #98, #110, #32, #234, #189 ) ) ;
#288 = AXIS2_PLACEMENT_3D ( 'NONE', #203, #37, #87 ) ;
#289 = ORIENTED_EDGE ( 'NONE', *, *, #278, .F. ) ;
#290 = DIRECTION ( 'NONE',  ( 1.000000000000000000, 0.000000000000000000, 0.000000000000000000 ) ) ;
#291 = CC_DESIGN_APPROVAL ( #212, ( #50 ) ) ;
#292 = ORIENTED_EDGE ( 'NONE', *, *, #255, .F. ) ;
#293 = ORIENTED_EDGE ( 'NONE', *, *, #175, .F. ) ;
#294 = CIRCLE ( 'NONE', #281, 0.5000000000000000000 ) ;
#295 = DIRECTION ( 'NONE',  ( -1.000000000000000000, 0.000000000000000000, 0.000000000000000000 ) ) ;
#296 = ORIENTED_EDGE ( 'NONE', *, *, #255, .T. ) ;
#297 = CYLINDRICAL_SURFACE ( 'NONE', #177, 0.5000000000000000000 ) ;
#298 = CIRCLE ( 'NONE', #245, 1.250000000000000000 ) ;
#299 = EDGE_CURVE ( 'NONE', #243, #271, #294, .T. ) ;
#300 = DIRECTION ( 'NONE',  ( 0.000000000000000000, 0.000000000000000000, 1.000000000000000000 ) ) ;
#301 = FACE_OUTER_BOUND ( 'NONE', #195, .T. ) ;
#302 = DIRECTION ( 'NONE',  ( 0.000000000000000000, 0.000000000000000000, 1.000000000000000000 ) ) ;
#303 = DIRECTION ( 'NONE',  ( -0.000000000000000000, -0.000000000000000000, -1.000000000000000000 ) ) ;
#304 = DIRECTION ( 'NONE',  ( -0.000000000000000000, -0.000000000000000000, -1.000000000000000000 ) ) ;
#305 = PRODUCT_RELATED_PRODUCT_CATEGORY ( 'detail', '', ( #247 ) ) ;
#306 = DIRECTION ( 'NONE',  ( -0.000000000000000000, -0.000000000000000000, -1.000000000000000000 ) ) ;
#307 = VECTOR ( 'NONE', #59, 1000.000000000000000 ) ;
ENDSEC;
END-ISO-10303-21;
