ISO-10303-21;
HEADER;
FILE_DESCRIPTION (( 'STEP AP203' ),
    '1' );
FILE_NAME ('05bf.STEP',
    '2022-07-07T09:51:16',
    ( '' ),
    ( '' ),
    'SwSTEP 2.0',
    'SolidWorks 2019',
    '' );
FILE_SCHEMA (( 'CONFIG_CONTROL_DESIGN' ));
ENDSEC;

DATA;
#1 = AXIS2_PLACEMENT_3D ( 'NONE', #128, #251, #103 ) ;
#2 = ORIENTED_EDGE ( 'NONE', *, *, #250, .T. ) ;
#3 = ORIENTED_EDGE ( 'NONE', *, *, #43, .F. ) ;
#4 = ORIENTED_EDGE ( 'NONE', *, *, #265, .F. ) ;
#5 = APPROVAL_ROLE ( '' ) ;
#6 = AXIS2_PLACEMENT_3D ( 'NONE', #62, #134, #109 ) ;
#7 = CARTESIAN_POINT ( 'NONE',  ( 0.000000000000000000, 0.000000000000000000, 5.199999999999996625 ) ) ;
#8 = CARTESIAN_POINT ( 'NONE',  ( 8.000000000000000000, 9.797174393178825657E-16, 5.000000000000000000 ) ) ;
#9 = CIRCLE ( 'NONE', #42, 0.1999999999999996503 ) ;
#10 = PRODUCT_DEFINITION_SHAPE ( 'NONE', 'NONE',  #80 ) ;
#11 = CARTESIAN_POINT ( 'NONE',  ( 0.000000000000000000, 0.000000000000000000, 5.000000000000000000 ) ) ;
#12 = APPROVAL_DATE_TIME ( #196, #66 ) ;
#13 = ORIENTED_EDGE ( 'NONE', *, *, #65, .F. ) ;
#14 = DIRECTION ( 'NONE',  ( 0.000000000000000000, 0.000000000000000000, 1.000000000000000000 ) ) ;
#15 = AXIS2_PLACEMENT_3D ( 'NONE', #11, #276, #252 ) ;
#16 = ORIENTED_EDGE ( 'NONE', *, *, #217, .T. ) ;
#17 = CARTESIAN_POINT ( 'NONE',  ( -8.000000000000000000, 0.000000000000000000, 0.000000000000000000 ) ) ;
#18 = DIRECTION ( 'NONE',  ( -0.000000000000000000, -0.000000000000000000, -1.000000000000000000 ) ) ;
#19 = ORIENTED_EDGE ( 'NONE', *, *, #259, .F. ) ;
#20 = FACE_BOUND ( 'NONE', #227, .T. ) ;
#21 = CIRCLE ( 'NONE', #244, 5.250000000000000888 ) ;
#22 = ORIENTED_EDGE ( 'NONE', *, *, #99, .F. ) ;
#23 = ADVANCED_FACE ( 'NONE', ( #169 ), #121, .T. ) ;
#24 = ORIENTED_EDGE ( 'NONE', *, *, #94, .F. ) ;
#25 = ORIENTED_EDGE ( 'NONE', *, *, #99, .T. ) ;
#26 = DATE_AND_TIME ( #239, #307 ) ;
#27 = DIRECTION ( 'NONE',  ( -0.000000000000000000, -0.000000000000000000, -1.000000000000000000 ) ) ;
#28 = DIRECTION ( 'NONE',  ( -0.000000000000000000, -0.000000000000000000, -1.000000000000000000 ) ) ;
#29 = DATE_TIME_ROLE ( 'creation_date' ) ;
#30 = CC_DESIGN_APPROVAL ( #243, ( #221 ) ) ;
#31 = COORDINATED_UNIVERSAL_TIME_OFFSET ( 1, 0, .AHEAD. ) ;
#32 = APPROVAL_ROLE ( '' ) ;
#33 = ADVANCED_FACE ( 'NONE', ( #291 ), #218, .T. ) ;
#34 = DIRECTION ( 'NONE',  ( 0.000000000000000000, 0.000000000000000000, 1.000000000000000000 ) ) ;
#35 = CARTESIAN_POINT ( 'NONE',  ( 8.000000000000000000, 9.797174393178825657E-16, 0.000000000000000000 ) ) ;
#36 = CARTESIAN_POINT ( 'NONE',  ( -5.450000000000001066, 6.674325055353076224E-16, 5.199999999999996625 ) ) ;
#37 = DIRECTION ( 'NONE',  ( 1.000000000000000000, 0.000000000000000000, -0.000000000000000000 ) ) ;
#38 = AXIS2_PLACEMENT_3D ( 'NONE', #130, #304, #254 ) ;
#39 = EDGE_LOOP ( 'NONE', ( #236, #279, #287, #299 ) ) ;
#40 = CARTESIAN_POINT ( 'NONE',  ( 0.000000000000000000, 0.000000000000000000, 5.199999999999996625 ) ) ;
#41 = CARTESIAN_POINT ( 'NONE',  ( 0.000000000000000000, 0.000000000000000000, 105.0000000000000142 ) ) ;
#42 = AXIS2_PLACEMENT_3D ( 'NONE', #36, #228, #85 ) ;
#43 = EDGE_CURVE ( 'NONE', #45, #288, #171, .T. ) ;
#44 = LOCAL_TIME ( 11, 51, 16.00000000000000000, #93 ) ;
#45 = VERTEX_POINT ( 'NONE', #8 ) ;
#46 = ORIENTED_EDGE ( 'NONE', *, *, #64, .F. ) ;
#47 =( NAMED_UNIT ( * ) PLANE_ANGLE_UNIT ( ) SI_UNIT ( $, .RADIAN. ) );
#48 = DATE_AND_TIME ( #150, #44 ) ;
#49 = DIRECTION ( 'NONE',  ( 0.000000000000000000, 0.000000000000000000, 1.000000000000000000 ) ) ;
#50 = CIRCLE ( 'NONE', #214, 5.250000000000000888 ) ;
#51 = PERSON_AND_ORGANIZATION ( #104, #88 ) ;
#52 = DIRECTION ( 'NONE',  ( 0.000000000000000000, 0.000000000000000000, 1.000000000000000000 ) ) ;
#53 = EDGE_CURVE ( 'NONE', #45, #92, #114, .T. ) ;
#54 = PERSON_AND_ORGANIZATION_ROLE ( 'classification_officer' ) ;
#55 =( LENGTH_UNIT ( ) NAMED_UNIT ( * ) SI_UNIT ( .MILLI., .METRE. ) );
#56 = AXIS2_PLACEMENT_3D ( 'NONE', #177, #34, #156 ) ;
#57 = CARTESIAN_POINT ( 'NONE',  ( 0.000000000000000000, 0.000000000000000000, 105.0000000000000142 ) ) ;
#58 = ORIENTED_EDGE ( 'NONE', *, *, #259, .T. ) ;
#59 = LINE ( 'NONE', #277, #264 ) ;
#60 = DIRECTION ( 'NONE',  ( -0.000000000000000000, -0.000000000000000000, -1.000000000000000000 ) ) ;
#61 = VERTEX_POINT ( 'NONE', #151 ) ;
#62 = CARTESIAN_POINT ( 'NONE',  ( 5.450000000000001066, 0.000000000000000000, 5.199999999999996625 ) ) ;
#63 = DIRECTION ( 'NONE',  ( -0.000000000000000000, -0.000000000000000000, -1.000000000000000000 ) ) ;
#64 = EDGE_CURVE ( 'NONE', #92, #45, #154, .T. ) ;
#65 = EDGE_CURVE ( 'NONE', #61, #210, #21, .T. ) ;
#66 = APPROVAL ( #69, 'NEURÈENÝ' ) ;
#67 = ORIENTED_EDGE ( 'NONE', *, *, #65, .T. ) ;
#68 = ORIENTED_EDGE ( 'NONE', *, *, #86, .T. ) ;
#69 = APPROVAL_STATUS ( 'not_yet_approved' ) ;
#70 = DIRECTION ( 'NONE',  ( -0.000000000000000000, -0.000000000000000000, -1.000000000000000000 ) ) ;
#71 = FACE_OUTER_BOUND ( 'NONE', #117, .T. ) ;
#72 = PERSON_AND_ORGANIZATION ( #104, #88 ) ;
#73 = ADVANCED_FACE ( 'NONE', ( #71 ), #87, .F. ) ;
#74 = DIRECTION ( 'NONE',  ( 1.000000000000000000, 0.000000000000000000, 0.000000000000000000 ) ) ;
#75 = DIRECTION ( 'NONE',  ( -0.000000000000000000, -0.000000000000000000, -1.000000000000000000 ) ) ;
#76 = AXIS2_PLACEMENT_3D ( 'NONE', #179, #52, #37 ) ;
#77 = VERTEX_POINT ( 'NONE', #17 ) ;
#78 = CARTESIAN_POINT ( 'NONE',  ( 0.000000000000000000, 0.000000000000000000, 0.000000000000000000 ) ) ;
#79 = CARTESIAN_POINT ( 'NONE',  ( 0.000000000000000000, 0.000000000000000000, 5.199999999999996625 ) ) ;
#80 = PRODUCT_DEFINITION ( 'NEZNÁMÝ', '', #221, #153 ) ;
#81 = VERTEX_POINT ( 'NONE', #157 ) ;
#82 = CARTESIAN_POINT ( 'NONE',  ( -8.000000000000000000, 0.000000000000000000, 5.000000000000000000 ) ) ;
#83 = LOCAL_TIME ( 11, 51, 16.00000000000000000, #219 ) ;
#84 = LINE ( 'NONE', #183, #298 ) ;
#85 = DIRECTION ( 'NONE',  ( -1.000000000000000000, 1.224646799147353454E-16, 0.000000000000000000 ) ) ;
#86 = EDGE_CURVE ( 'NONE', #139, #235, #164, .T. ) ;
#87 = TOROIDAL_SURFACE ( 'NONE', #269, 5.450000000000001066, 0.2000000000000000111 ) ;
#88 = ORGANIZATION ( 'NEURÈENÝ', 'NEURÈENÝ', '' ) ;
#89 = CIRCLE ( 'NONE', #260, 8.000000000000000000 ) ;
#90 = CC_DESIGN_PERSON_AND_ORGANIZATION_ASSIGNMENT ( #245, #295, ( #221 ) ) ;
#91 = ORIENTED_EDGE ( 'NONE', *, *, #284, .T. ) ;
#92 = VERTEX_POINT ( 'NONE', #82 ) ;
#93 = COORDINATED_UNIVERSAL_TIME_OFFSET ( 1, 0, .AHEAD. ) ;
#94 = EDGE_CURVE ( 'NONE', #61, #139, #59, .T. ) ;
#95 = PERSON_AND_ORGANIZATION ( #104, #88 ) ;
#96 = DIRECTION ( 'NONE',  ( -1.000000000000000000, 0.000000000000000000, 0.000000000000000000 ) ) ;
#97 = LOCAL_TIME ( 11, 51, 16.00000000000000000, #192 ) ;
#98 = CARTESIAN_POINT ( 'NONE',  ( 0.000000000000000000, 0.000000000000000000, 0.000000000000000000 ) ) ;
#99 = EDGE_CURVE ( 'NONE', #81, #139, #50, .T. ) ;
#100 = CARTESIAN_POINT ( 'NONE',  ( 0.000000000000000000, 0.000000000000000000, 105.0000000000000142 ) ) ;
#101 = CALENDAR_DATE ( 2022, 7, 7 ) ;
#102 =( GEOMETRIC_REPRESENTATION_CONTEXT ( 3 ) GLOBAL_UNCERTAINTY_ASSIGNED_CONTEXT ( ( #274 ) ) GLOBAL_UNIT_ASSIGNED_CONTEXT ( ( #55, #47, #292 ) ) REPRESENTATION_CONTEXT ( 'NONE', 'WORKASPACE' ) );
#103 = DIRECTION ( 'NONE',  ( 1.000000000000000000, 0.000000000000000000, 0.000000000000000000 ) ) ;
#104 = PERSON ( 'NEURÈENÝ', 'NEURÈENÝ', 'NEURÈENÝ', ('NEURÈENÝ'), ('NEURÈENÝ'), ('NEURÈENÝ') ) ;
#105 = ORIENTED_EDGE ( 'NONE', *, *, #284, .F. ) ;
#106 = DIRECTION ( 'NONE',  ( 1.000000000000000000, 0.000000000000000000, 0.000000000000000000 ) ) ;
#107 = CIRCLE ( 'NONE', #234, 8.000000000000000000 ) ;
#108 = ORIENTED_EDGE ( 'NONE', *, *, #86, .F. ) ;
#109 = DIRECTION ( 'NONE',  ( 0.000000000000000000, 0.000000000000000000, -1.000000000000000000 ) ) ;
#110 = CARTESIAN_POINT ( 'NONE',  ( -5.450000000000001066, 6.674325055353076224E-16, 4.999999999999998224 ) ) ;
#111 = CC_DESIGN_DATE_AND_TIME_ASSIGNMENT ( #26, #119, ( #230 ) ) ;
#112 = PLANE ( 'NONE',  #76 ) ;
#113 = APPROVAL ( #290, 'NEURÈENÝ' ) ;
#114 = CIRCLE ( 'NONE', #148, 8.000000000000000000 ) ;
#115 = APPROVAL_PERSON_ORGANIZATION ( #123, #243, #32 ) ;
#116 = EDGE_LOOP ( 'NONE', ( #223, #181 ) ) ;
#117 = EDGE_LOOP ( 'NONE', ( #22, #188, #208, #108 ) ) ;
#118 = ADVANCED_FACE ( 'NONE', ( #280 ), #160, .T. ) ;
#119 = DATE_TIME_ROLE ( 'classification_date' ) ;
#120 = DIRECTION ( 'NONE',  ( 1.000000000000000000, 0.000000000000000000, 0.000000000000000000 ) ) ;
#121 = CYLINDRICAL_SURFACE ( 'NONE', #176, 8.000000000000000000 ) ;
#122 = DIRECTION ( 'NONE',  ( 0.000000000000000000, 0.000000000000000000, 1.000000000000000000 ) ) ;
#123 = PERSON_AND_ORGANIZATION ( #104, #88 ) ;
#124 = CC_DESIGN_PERSON_AND_ORGANIZATION_ASSIGNMENT ( #273, #54, ( #230 ) ) ;
#125 = AXIS2_PLACEMENT_3D ( 'NONE', #41, #158, #303 ) ;
#126 = CC_DESIGN_APPROVAL ( #66, ( #230 ) ) ;
#127 = CYLINDRICAL_SURFACE ( 'NONE', #125, 5.250000000000000888 ) ;
#128 = CARTESIAN_POINT ( 'NONE',  ( 0.000000000000000000, 0.000000000000000000, 105.0000000000000142 ) ) ;
#129 = EDGE_LOOP ( 'NONE', ( #13, #262, #58, #263 ) ) ;
#130 = CARTESIAN_POINT ( 'NONE',  ( 0.000000000000000000, 0.000000000000000000, 105.0000000000000142 ) ) ;
#131 = CARTESIAN_POINT ( 'NONE',  ( 5.450000000000001066, 0.000000000000000000, 4.999999999999998224 ) ) ;
#132 = CIRCLE ( 'NONE', #1, 5.250000000000000888 ) ;
#133 = EDGE_LOOP ( 'NONE', ( #3, #46, #16, #199 ) ) ;
#134 = DIRECTION ( 'NONE',  ( 0.000000000000000000, -1.000000000000000000, 0.000000000000000000 ) ) ;
#135 = FACE_OUTER_BOUND ( 'NONE', #256, .T. ) ;
#136 = AXIS2_PLACEMENT_3D ( 'NONE', #147, #70, #246 ) ;
#137 = CC_DESIGN_PERSON_AND_ORGANIZATION_ASSIGNMENT ( #190, #249, ( #229 ) ) ;
#138 = CC_DESIGN_PERSON_AND_ORGANIZATION_ASSIGNMENT ( #72, #289, ( #221 ) ) ;
#139 = VERTEX_POINT ( 'NONE', #302 ) ;
#140 = ORIENTED_EDGE ( 'NONE', *, *, #155, .F. ) ;
#141 = CC_DESIGN_PERSON_AND_ORGANIZATION_ASSIGNMENT ( #51, #267, ( #80 ) ) ;
#142 = DATE_AND_TIME ( #101, #83 ) ;
#143 = MECHANICAL_CONTEXT ( 'NONE', #144, 'mechanical' ) ;
#144 = APPLICATION_CONTEXT ( 'configuration controlled 3d designs of mechanical parts and assemblies' ) ;
#145 = DIRECTION ( 'NONE',  ( 0.000000000000000000, 0.000000000000000000, 1.000000000000000000 ) ) ;
#146 = APPROVAL_STATUS ( 'not_yet_approved' ) ;
#147 = CARTESIAN_POINT ( 'NONE',  ( 0.000000000000000000, 0.000000000000000000, 5.000000000000000000 ) ) ;
#148 = AXIS2_PLACEMENT_3D ( 'NONE', #195, #122, #293 ) ;
#149 = SHAPE_DEFINITION_REPRESENTATION ( #10, #163 ) ;
#150 = CALENDAR_DATE ( 2022, 7, 7 ) ;
#151 = CARTESIAN_POINT ( 'NONE',  ( 5.250000000000000888, 6.429395695523605139E-16, 105.0000000000000142 ) ) ;
#152 = COORDINATED_UNIVERSAL_TIME_OFFSET ( 1, 0, .AHEAD. ) ;
#153 = DESIGN_CONTEXT ( 'detailed design', #233, 'design' ) ;
#154 = CIRCLE ( 'NONE', #187, 8.000000000000000000 ) ;
#155 = EDGE_CURVE ( 'NONE', #81, #238, #9, .T. ) ;
#156 = DIRECTION ( 'NONE',  ( 1.000000000000000000, 0.000000000000000000, 0.000000000000000000 ) ) ;
#157 = CARTESIAN_POINT ( 'NONE',  ( -5.250000000000000888, 0.000000000000000000, 5.199999999999996625 ) ) ;
#158 = DIRECTION ( 'NONE',  ( -0.000000000000000000, -0.000000000000000000, -1.000000000000000000 ) ) ;
#159 = ORIENTED_EDGE ( 'NONE', *, *, #174, .F. ) ;
#160 = PLANE ( 'NONE',  #38 ) ;
#161 = FACE_OUTER_BOUND ( 'NONE', #129, .T. ) ;
#162 = VECTOR ( 'NONE', #63, 1000.000000000000000 ) ;
#163 = ADVANCED_BREP_SHAPE_REPRESENTATION ( '05bf', ( #232, #237 ), #102 ) ;
#164 = CIRCLE ( 'NONE', #6, 0.1999999999999996503 ) ;
#165 = ORIENTED_EDGE ( 'NONE', *, *, #306, .F. ) ;
#166 = ADVANCED_FACE ( 'NONE', ( #20, #184 ), #112, .T. ) ;
#167 = EDGE_LOOP ( 'NONE', ( #159, #4 ) ) ;
#168 = VECTOR ( 'NONE', #28, 1000.000000000000000 ) ;
#169 = FACE_OUTER_BOUND ( 'NONE', #39, .T. ) ;
#170 = DATE_AND_TIME ( #194, #97 ) ;
#171 = LINE ( 'NONE', #242, #168 ) ;
#172 = APPROVAL_DATE_TIME ( #170, #113 ) ;
#173 = SECURITY_CLASSIFICATION_LEVEL ( 'unclassified' ) ;
#174 = EDGE_CURVE ( 'NONE', #77, #288, #89, .T. ) ;
#175 = DIRECTION ( 'NONE',  ( 1.000000000000000000, 0.000000000000000000, 0.000000000000000000 ) ) ;
#176 = AXIS2_PLACEMENT_3D ( 'NONE', #193, #27, #96 ) ;
#177 = CARTESIAN_POINT ( 'NONE',  ( 0.000000000000000000, 0.000000000000000000, 5.199999999999996625 ) ) ;
#178 = EDGE_LOOP ( 'NONE', ( #140, #19, #68, #105 ) ) ;
#179 = CARTESIAN_POINT ( 'NONE',  ( 0.000000000000000000, 0.000000000000000000, 5.000000000000000000 ) ) ;
#180 = DIRECTION ( 'NONE',  ( 1.000000000000000000, 0.000000000000000000, 0.000000000000000000 ) ) ;
#181 = ORIENTED_EDGE ( 'NONE', *, *, #53, .T. ) ;
#182 = DIRECTION ( 'NONE',  ( 0.000000000000000000, 0.000000000000000000, 1.000000000000000000 ) ) ;
#183 = CARTESIAN_POINT ( 'NONE',  ( -8.000000000000000000, 0.000000000000000000, 5.000000000000000000 ) ) ;
#184 = FACE_OUTER_BOUND ( 'NONE', #116, .T. ) ;
#185 = APPROVAL_PERSON_ORGANIZATION ( #213, #66, #5 ) ;
#186 = ADVANCED_FACE ( 'NONE', ( #135 ), #127, .T. ) ;
#187 = AXIS2_PLACEMENT_3D ( 'NONE', #268, #49, #271 ) ;
#188 = ORIENTED_EDGE ( 'NONE', *, *, #155, .T. ) ;
#189 = EDGE_LOOP ( 'NONE', ( #203, #67 ) ) ;
#190 = PERSON_AND_ORGANIZATION ( #104, #88 ) ;
#191 = AXIS2_PLACEMENT_3D ( 'NONE', #57, #75, #301 ) ;
#192 = COORDINATED_UNIVERSAL_TIME_OFFSET ( 1, 0, .AHEAD. ) ;
#193 = CARTESIAN_POINT ( 'NONE',  ( 0.000000000000000000, 0.000000000000000000, 5.000000000000000000 ) ) ;
#194 = CALENDAR_DATE ( 2022, 7, 7 ) ;
#195 = CARTESIAN_POINT ( 'NONE',  ( 0.000000000000000000, 0.000000000000000000, 5.000000000000000000 ) ) ;
#196 = DATE_AND_TIME ( #272, #266 ) ;
#197 = APPROVAL_DATE_TIME ( #142, #243 ) ;
#198 = CARTESIAN_POINT ( 'NONE',  ( 0.000000000000000000, 0.000000000000000000, 0.000000000000000000 ) ) ;
#199 = ORIENTED_EDGE ( 'NONE', *, *, #174, .T. ) ;
#200 = CIRCLE ( 'NONE', #56, 5.250000000000000888 ) ;
#201 = CARTESIAN_POINT ( 'NONE',  ( 0.000000000000000000, 0.000000000000000000, 0.000000000000000000 ) ) ;
#202 = CYLINDRICAL_SURFACE ( 'NONE', #191, 5.250000000000000888 ) ;
#203 = ORIENTED_EDGE ( 'NONE', *, *, #306, .T. ) ;
#204 = DIRECTION ( 'NONE',  ( 1.000000000000000000, 0.000000000000000000, 0.000000000000000000 ) ) ;
#205 = LINE ( 'NONE', #222, #162 ) ;
#206 = DIRECTION ( 'NONE',  ( 0.000000000000000000, 0.000000000000000000, 1.000000000000000000 ) ) ;
#207 = AXIS2_PLACEMENT_3D ( 'NONE', #278, #60, #106 ) ;
#208 = ORIENTED_EDGE ( 'NONE', *, *, #247, .F. ) ;
#209 = TOROIDAL_SURFACE ( 'NONE', #225, 5.450000000000001066, 0.2000000000000000111 ) ;
#210 = VERTEX_POINT ( 'NONE', #255 ) ;
#211 = PRODUCT_RELATED_PRODUCT_CATEGORY ( 'detail', '', ( #229 ) ) ;
#212 = ORIENTED_EDGE ( 'NONE', *, *, #247, .T. ) ;
#213 = PERSON_AND_ORGANIZATION ( #104, #88 ) ;
#214 = AXIS2_PLACEMENT_3D ( 'NONE', #40, #182, #204 ) ;
#215 = APPLICATION_PROTOCOL_DEFINITION ( 'international standard', 'config_control_design', 1994, #144 ) ;
#216 = DIRECTION ( 'NONE',  ( 1.000000000000000000, 0.000000000000000000, 0.000000000000000000 ) ) ;
#217 = EDGE_CURVE ( 'NONE', #92, #77, #84, .T. ) ;
#218 = CYLINDRICAL_SURFACE ( 'NONE', #136, 8.000000000000000000 ) ;
#219 = COORDINATED_UNIVERSAL_TIME_OFFSET ( 1, 0, .AHEAD. ) ;
#220 = DIRECTION ( 'NONE',  ( 0.000000000000000000, 0.000000000000000000, 1.000000000000000000 ) ) ;
#221 = PRODUCT_DEFINITION_FORMATION_WITH_SPECIFIED_SOURCE ( 'LIBOVOLNÝ', '', #229, .NOT_KNOWN. ) ;
#222 = CARTESIAN_POINT ( 'NONE',  ( -5.250000000000000888, 0.000000000000000000, 105.0000000000000142 ) ) ;
#223 = ORIENTED_EDGE ( 'NONE', *, *, #64, .T. ) ;
#224 = DIRECTION ( 'NONE',  ( 1.000000000000000000, 0.000000000000000000, 0.000000000000000000 ) ) ;
#225 = AXIS2_PLACEMENT_3D ( 'NONE', #79, #220, #74 ) ;
#226 = PLANE ( 'NONE',  #305 ) ;
#227 = EDGE_LOOP ( 'NONE', ( #212, #91 ) ) ;
#228 = DIRECTION ( 'NONE',  ( 1.224646799147353207E-16, 1.000000000000000000, -0.000000000000000000 ) ) ;
#229 = PRODUCT ( '05bf', '05bf', '', ( #143 ) ) ;
#230 = SECURITY_CLASSIFICATION ( '', '', #173 ) ;
#231 = ADVANCED_FACE ( 'NONE', ( #258 ), #226, .F. ) ;
#232 = MANIFOLD_SOLID_BREP ( 'Zaoblit1', #282 ) ;
#233 = APPLICATION_CONTEXT ( 'configuration controlled 3d designs of mechanical parts and assemblies' ) ;
#234 = AXIS2_PLACEMENT_3D ( 'NONE', #198, #296, #175 ) ;
#235 = VERTEX_POINT ( 'NONE', #131 ) ;
#236 = ORIENTED_EDGE ( 'NONE', *, *, #53, .F. ) ;
#237 = AXIS2_PLACEMENT_3D ( 'NONE', #98, #248, #120 ) ;
#238 = VERTEX_POINT ( 'NONE', #110 ) ;
#239 = CALENDAR_DATE ( 2022, 7, 7 ) ;
#240 = CC_DESIGN_APPROVAL ( #113, ( #80 ) ) ;
#241 = APPROVAL_ROLE ( '' ) ;
#242 = CARTESIAN_POINT ( 'NONE',  ( 8.000000000000000000, 9.797174393178825657E-16, 5.000000000000000000 ) ) ;
#243 = APPROVAL ( #146, 'NEURÈENÝ' ) ;
#244 = AXIS2_PLACEMENT_3D ( 'NONE', #100, #145, #216 ) ;
#245 = PERSON_AND_ORGANIZATION ( #104, #88 ) ;
#246 = DIRECTION ( 'NONE',  ( -1.000000000000000000, 0.000000000000000000, 0.000000000000000000 ) ) ;
#247 = EDGE_CURVE ( 'NONE', #235, #238, #294, .T. ) ;
#248 = DIRECTION ( 'NONE',  ( 0.000000000000000000, 0.000000000000000000, 1.000000000000000000 ) ) ;
#249 = PERSON_AND_ORGANIZATION_ROLE ( 'design_owner' ) ;
#250 = EDGE_CURVE ( 'NONE', #210, #81, #205, .T. ) ;
#251 = DIRECTION ( 'NONE',  ( 0.000000000000000000, 0.000000000000000000, 1.000000000000000000 ) ) ;
#252 = DIRECTION ( 'NONE',  ( 1.000000000000000000, 0.000000000000000000, 0.000000000000000000 ) ) ;
#253 = ADVANCED_FACE ( 'NONE', ( #161 ), #202, .T. ) ;
#254 = DIRECTION ( 'NONE',  ( 1.000000000000000000, 0.000000000000000000, -0.000000000000000000 ) ) ;
#255 = CARTESIAN_POINT ( 'NONE',  ( -5.250000000000000888, 0.000000000000000000, 105.0000000000000142 ) ) ;
#256 = EDGE_LOOP ( 'NONE', ( #24, #165, #2, #25 ) ) ;
#257 = DIRECTION ( 'NONE',  ( -0.000000000000000000, -0.000000000000000000, -1.000000000000000000 ) ) ;
#258 = FACE_OUTER_BOUND ( 'NONE', #167, .T. ) ;
#259 = EDGE_CURVE ( 'NONE', #139, #81, #200, .T. ) ;
#260 = AXIS2_PLACEMENT_3D ( 'NONE', #78, #14, #180 ) ;
#261 = CC_DESIGN_SECURITY_CLASSIFICATION ( #230, ( #221 ) ) ;
#262 = ORIENTED_EDGE ( 'NONE', *, *, #94, .T. ) ;
#263 = ORIENTED_EDGE ( 'NONE', *, *, #250, .F. ) ;
#264 = VECTOR ( 'NONE', #257, 1000.000000000000000 ) ;
#265 = EDGE_CURVE ( 'NONE', #288, #77, #107, .T. ) ;
#266 = LOCAL_TIME ( 11, 51, 16.00000000000000000, #31 ) ;
#267 = PERSON_AND_ORGANIZATION_ROLE ( 'creator' ) ;
#268 = CARTESIAN_POINT ( 'NONE',  ( 0.000000000000000000, 0.000000000000000000, 5.000000000000000000 ) ) ;
#269 = AXIS2_PLACEMENT_3D ( 'NONE', #7, #206, #224 ) ;
#270 = APPLICATION_PROTOCOL_DEFINITION ( 'international standard', 'config_control_design', 1994, #233 ) ;
#271 = DIRECTION ( 'NONE',  ( 1.000000000000000000, 0.000000000000000000, 0.000000000000000000 ) ) ;
#272 = CALENDAR_DATE ( 2022, 7, 7 ) ;
#273 = PERSON_AND_ORGANIZATION ( #104, #88 ) ;
#274 = UNCERTAINTY_MEASURE_WITH_UNIT (LENGTH_MEASURE( 1.000000000000000082E-05 ), #55, 'distance_accuracy_value', 'NONE');
#275 = FACE_OUTER_BOUND ( 'NONE', #178, .T. ) ;
#276 = DIRECTION ( 'NONE',  ( -0.000000000000000000, -0.000000000000000000, -1.000000000000000000 ) ) ;
#277 = CARTESIAN_POINT ( 'NONE',  ( 5.250000000000000888, 6.429395695523605139E-16, 105.0000000000000142 ) ) ;
#278 = CARTESIAN_POINT ( 'NONE',  ( 0.000000000000000000, 0.000000000000000000, 5.000000000000000000 ) ) ;
#279 = ORIENTED_EDGE ( 'NONE', *, *, #43, .T. ) ;
#280 = FACE_OUTER_BOUND ( 'NONE', #189, .T. ) ;
#281 = DIRECTION ( 'NONE',  ( 0.000000000000000000, 0.000000000000000000, 1.000000000000000000 ) ) ;
#282 = CLOSED_SHELL ( 'NONE', ( #73, #253, #23, #33, #166, #231, #186, #118, #286 ) ) ;
#283 = CIRCLE ( 'NONE', #15, 5.450000000000001066 ) ;
#284 = EDGE_CURVE ( 'NONE', #238, #235, #283, .T. ) ;
#285 = APPROVAL_PERSON_ORGANIZATION ( #95, #113, #241 ) ;
#286 = ADVANCED_FACE ( 'NONE', ( #275 ), #209, .F. ) ;
#287 = ORIENTED_EDGE ( 'NONE', *, *, #265, .T. ) ;
#288 = VERTEX_POINT ( 'NONE', #35 ) ;
#289 = PERSON_AND_ORGANIZATION_ROLE ( 'design_supplier' ) ;
#290 = APPROVAL_STATUS ( 'not_yet_approved' ) ;
#291 = FACE_OUTER_BOUND ( 'NONE', #133, .T. ) ;
#292 =( NAMED_UNIT ( * ) SI_UNIT ( $, .STERADIAN. ) SOLID_ANGLE_UNIT ( ) );
#293 = DIRECTION ( 'NONE',  ( 1.000000000000000000, 0.000000000000000000, 0.000000000000000000 ) ) ;
#294 = CIRCLE ( 'NONE', #207, 5.450000000000001066 ) ;
#295 = PERSON_AND_ORGANIZATION_ROLE ( 'creator' ) ;
#296 = DIRECTION ( 'NONE',  ( 0.000000000000000000, 0.000000000000000000, 1.000000000000000000 ) ) ;
#297 = CC_DESIGN_DATE_AND_TIME_ASSIGNMENT ( #48, #29, ( #80 ) ) ;
#298 = VECTOR ( 'NONE', #18, 1000.000000000000000 ) ;
#299 = ORIENTED_EDGE ( 'NONE', *, *, #217, .F. ) ;
#300 = DIRECTION ( 'NONE',  ( 1.000000000000000000, 0.000000000000000000, -0.000000000000000000 ) ) ;
#301 = DIRECTION ( 'NONE',  ( -1.000000000000000000, 0.000000000000000000, 0.000000000000000000 ) ) ;
#302 = CARTESIAN_POINT ( 'NONE',  ( 5.250000000000000888, 6.429395695523605139E-16, 5.199999999999996625 ) ) ;
#303 = DIRECTION ( 'NONE',  ( -1.000000000000000000, 0.000000000000000000, 0.000000000000000000 ) ) ;
#304 = DIRECTION ( 'NONE',  ( 0.000000000000000000, 0.000000000000000000, 1.000000000000000000 ) ) ;
#305 = AXIS2_PLACEMENT_3D ( 'NONE', #201, #281, #300 ) ;
#306 = EDGE_CURVE ( 'NONE', #210, #61, #132, .T. ) ;
#307 = LOCAL_TIME ( 11, 51, 16.00000000000000000, #152 ) ;
ENDSEC;
END-ISO-10303-21;
