ISO-10303-21;
HEADER;
FILE_DESCRIPTION (( 'STEP AP203' ),
    '1' );
FILE_NAME ('bd78.STEP',
    '2022-07-07T09:44:39',
    ( '' ),
    ( '' ),
    'SwSTEP 2.0',
    'SolidWorks 2019',
    '' );
FILE_SCHEMA (( 'CONFIG_CONTROL_DESIGN' ));
ENDSEC;

DATA;
#1 = FACE_OUTER_BOUND ( 'NONE', #12, .T. ) ;
#2 = AXIS2_PLACEMENT_3D ( 'NONE', #222, #246, #81 ) ;
#3 = CC_DESIGN_APPROVAL ( #82, ( #208 ) ) ;
#4 = PERSON_AND_ORGANIZATION_ROLE ( 'design_owner' ) ;
#5 = ORIENTED_EDGE ( 'NONE', *, *, #22, .T. ) ;
#6 = PERSON_AND_ORGANIZATION ( #241, #157 ) ;
#7 = EDGE_CURVE ( 'NONE', #80, #198, #39, .T. ) ;
#8 = ORIENTED_EDGE ( 'NONE', *, *, #7, .T. ) ;
#9 = ORIENTED_EDGE ( 'NONE', *, *, #293, .F. ) ;
#10 = AXIS2_PLACEMENT_3D ( 'NONE', #153, #204, #69 ) ;
#11 = TOROIDAL_SURFACE ( 'NONE', #177, 6.299999999999998934, 0.2000000000000000111 ) ;
#12 = EDGE_LOOP ( 'NONE', ( #9, #123, #242, #102 ) ) ;
#13 = EDGE_LOOP ( 'NONE', ( #8, #194 ) ) ;
#14 = ORIENTED_EDGE ( 'NONE', *, *, #120, .F. ) ;
#15 = CC_DESIGN_SECURITY_CLASSIFICATION ( #129, ( #208 ) ) ;
#16 = CARTESIAN_POINT ( 'NONE',  ( 0.000000000000000000, 0.000000000000000000, 7.000000000000000000 ) ) ;
#17 = CC_DESIGN_PERSON_AND_ORGANIZATION_ASSIGNMENT ( #258, #233, ( #71 ) ) ;
#18 = CARTESIAN_POINT ( 'NONE',  ( 0.000000000000000000, 0.000000000000000000, 322.0000000000000000 ) ) ;
#19 = CARTESIAN_POINT ( 'NONE',  ( 0.000000000000000000, 0.000000000000000000, 7.000000000000000000 ) ) ;
#20 = DIRECTION ( 'NONE',  ( 1.000000000000000000, 0.000000000000000000, 0.000000000000000000 ) ) ;
#21 = DIRECTION ( 'NONE',  ( -0.000000000000000000, -0.000000000000000000, -1.000000000000000000 ) ) ;
#22 = EDGE_CURVE ( 'NONE', #198, #291, #218, .T. ) ;
#23 = PERSON_AND_ORGANIZATION ( #241, #157 ) ;
#24 = AXIS2_PLACEMENT_3D ( 'NONE', #253, #227, #299 ) ;
#25 = LINE ( 'NONE', #74, #105 ) ;
#26 = DIRECTION ( 'NONE',  ( -1.000000000000000000, 0.000000000000000000, 0.000000000000000000 ) ) ;
#27 = EDGE_CURVE ( 'NONE', #198, #80, #228, .T. ) ;
#28 = UNCERTAINTY_MEASURE_WITH_UNIT (LENGTH_MEASURE( 1.000000000000000082E-05 ), #187, 'distance_accuracy_value', 'NONE');
#29 = DIRECTION ( 'NONE',  ( 1.000000000000000000, 0.000000000000000000, 0.000000000000000000 ) ) ;
#30 = VECTOR ( 'NONE', #300, 1000.000000000000000 ) ;
#31 = ORIENTED_EDGE ( 'NONE', *, *, #213, .T. ) ;
#32 = EDGE_CURVE ( 'NONE', #291, #38, #63, .T. ) ;
#33 = PERSON_AND_ORGANIZATION ( #241, #157 ) ;
#34 = ORIENTED_EDGE ( 'NONE', *, *, #22, .F. ) ;
#35 = ORIENTED_EDGE ( 'NONE', *, *, #110, .F. ) ;
#36 = DIRECTION ( 'NONE',  ( 0.000000000000000000, 0.000000000000000000, 1.000000000000000000 ) ) ;
#37 = EDGE_LOOP ( 'NONE', ( #99, #247 ) ) ;
#38 = VERTEX_POINT ( 'NONE', #189 ) ;
#39 = CIRCLE ( 'NONE', #2, 9.000000000000000000 ) ;
#40 = CC_DESIGN_APPROVAL ( #195, ( #71 ) ) ;
#41 = DIRECTION ( 'NONE',  ( -0.000000000000000000, -0.000000000000000000, -1.000000000000000000 ) ) ;
#42 = DIRECTION ( 'NONE',  ( 0.000000000000000000, 0.000000000000000000, 1.000000000000000000 ) ) ;
#43 = PLANE ( 'NONE',  #186 ) ;
#44 = AXIS2_PLACEMENT_3D ( 'NONE', #45, #87, #275 ) ;
#45 = CARTESIAN_POINT ( 'NONE',  ( 0.000000000000000000, 0.000000000000000000, 322.0000000000000000 ) ) ;
#46 = DATE_TIME_ROLE ( 'classification_date' ) ;
#47 = COORDINATED_UNIVERSAL_TIME_OFFSET ( 1, 0, .AHEAD. ) ;
#48 = APPROVAL_DATE_TIME ( #138, #160 ) ;
#49 = CARTESIAN_POINT ( 'NONE',  ( 0.000000000000000000, 0.000000000000000000, 322.0000000000000000 ) ) ;
#50 = CARTESIAN_POINT ( 'NONE',  ( -6.299999999999998934, 7.715274834628324392E-16, 6.999999999999992006 ) ) ;
#51 = SECURITY_CLASSIFICATION_LEVEL ( 'unclassified' ) ;
#52 = APPROVAL_ROLE ( '' ) ;
#53 = CIRCLE ( 'NONE', #122, 6.299999999999998934 ) ;
#54 = EDGE_LOOP ( 'NONE', ( #148, #121, #83, #78 ) ) ;
#55 = VERTEX_POINT ( 'NONE', #101 ) ;
#56 = EDGE_CURVE ( 'NONE', #55, #273, #207, .T. ) ;
#57 = EDGE_LOOP ( 'NONE', ( #34, #294, #147, #150 ) ) ;
#58 = AXIS2_PLACEMENT_3D ( 'NONE', #49, #185, #283 ) ;
#59 = ORIENTED_EDGE ( 'NONE', *, *, #75, .T. ) ;
#60 = CARTESIAN_POINT ( 'NONE',  ( 9.000000000000000000, 1.102182119232617714E-15, 7.000000000000000000 ) ) ;
#61 = CC_DESIGN_PERSON_AND_ORGANIZATION_ASSIGNMENT ( #116, #215, ( #208 ) ) ;
#62 = PLANE ( 'NONE',  #97 ) ;
#63 = CIRCLE ( 'NONE', #134, 9.000000000000000000 ) ;
#64 = CARTESIAN_POINT ( 'NONE',  ( -6.099999999999999645, 0.000000000000000000, 322.0000000000000000 ) ) ;
#65 = CARTESIAN_POINT ( 'NONE',  ( 0.000000000000000000, 0.000000000000000000, 0.000000000000000000 ) ) ;
#66 = PLANE ( 'NONE',  #298 ) ;
#67 = CC_DESIGN_APPROVAL ( #160, ( #129 ) ) ;
#68 = DATE_AND_TIME ( #113, #100 ) ;
#69 = DIRECTION ( 'NONE',  ( 1.000000000000000000, 0.000000000000000000, 0.000000000000000000 ) ) ;
#70 = DIRECTION ( 'NONE',  ( 1.000000000000000000, 0.000000000000000000, 0.000000000000000000 ) ) ;
#71 = PRODUCT_DEFINITION ( 'NEZNÁMÝ', '', #208, #166 ) ;
#72 = DIRECTION ( 'NONE',  ( 0.000000000000000000, 0.000000000000000000, 1.000000000000000000 ) ) ;
#73 = AXIS2_PLACEMENT_3D ( 'NONE', #295, #306, #142 ) ;
#74 = CARTESIAN_POINT ( 'NONE',  ( 6.099999999999999645, 7.470345474798854293E-16, 322.0000000000000000 ) ) ;
#75 = EDGE_CURVE ( 'NONE', #55, #259, #141, .T. ) ;
#76 = ORIENTED_EDGE ( 'NONE', *, *, #56, .F. ) ;
#77 = COORDINATED_UNIVERSAL_TIME_OFFSET ( 1, 0, .AHEAD. ) ;
#78 = ORIENTED_EDGE ( 'NONE', *, *, #127, .F. ) ;
#79 = ADVANCED_FACE ( 'NONE', ( #175 ), #255, .T. ) ;
#80 = VERTEX_POINT ( 'NONE', #296 ) ;
#81 = DIRECTION ( 'NONE',  ( 1.000000000000000000, 0.000000000000000000, 0.000000000000000000 ) ) ;
#82 = APPROVAL ( #119, 'NEURÈENÝ' ) ;
#83 = ORIENTED_EDGE ( 'NONE', *, *, #56, .T. ) ;
#84 = DIRECTION ( 'NONE',  ( 1.000000000000000000, 0.000000000000000000, -0.000000000000000000 ) ) ;
#85 = DIRECTION ( 'NONE',  ( 1.000000000000000000, 0.000000000000000000, 0.000000000000000000 ) ) ;
#86 = CIRCLE ( 'NONE', #249, 6.099999999999999645 ) ;
#87 = DIRECTION ( 'NONE',  ( 0.000000000000000000, 0.000000000000000000, 1.000000000000000000 ) ) ;
#88 = DIRECTION ( 'NONE',  ( -1.000000000000000000, 1.224646799147353454E-16, 0.000000000000000000 ) ) ;
#89 = FACE_OUTER_BOUND ( 'NONE', #292, .T. ) ;
#90 = AXIS2_PLACEMENT_3D ( 'NONE', #251, #41, #109 ) ;
#91 = APPROVAL_DATE_TIME ( #264, #82 ) ;
#92 = CARTESIAN_POINT ( 'NONE',  ( 9.000000000000000000, 1.102182119232617714E-15, 0.000000000000000000 ) ) ;
#93 = ADVANCED_FACE ( 'NONE', ( #111 ), #62, .T. ) ;
#94 = DIRECTION ( 'NONE',  ( -0.000000000000000000, -0.000000000000000000, -1.000000000000000000 ) ) ;
#95 = CARTESIAN_POINT ( 'NONE',  ( 0.000000000000000000, 0.000000000000000000, 7.199999999999984190 ) ) ;
#96 = AXIS2_PLACEMENT_3D ( 'NONE', #152, #36, #248 ) ;
#97 = AXIS2_PLACEMENT_3D ( 'NONE', #178, #179, #84 ) ;
#98 = APPLICATION_PROTOCOL_DEFINITION ( 'international standard', 'config_control_design', 1994, #216 ) ;
#99 = ORIENTED_EDGE ( 'NONE', *, *, #223, .T. ) ;
#100 = LOCAL_TIME ( 11, 44, 39.00000000000000000, #77 ) ;
#101 = CARTESIAN_POINT ( 'NONE',  ( 6.099999999999999645, 7.470345474798854293E-16, 7.199999999999984190 ) ) ;
#102 = ORIENTED_EDGE ( 'NONE', *, *, #252, .T. ) ;
#103 = EDGE_LOOP ( 'NONE', ( #305, #31, #219, #76 ) ) ;
#104 = ORIENTED_EDGE ( 'NONE', *, *, #276, .F. ) ;
#105 = VECTOR ( 'NONE', #237, 1000.000000000000000 ) ;
#106 = CC_DESIGN_DATE_AND_TIME_ASSIGNMENT ( #260, #265, ( #71 ) ) ;
#107 = DIRECTION ( 'NONE',  ( 0.000000000000000000, 0.000000000000000000, -1.000000000000000000 ) ) ;
#108 = CARTESIAN_POINT ( 'NONE',  ( -6.099999999999999645, 0.000000000000000000, 7.199999999999984190 ) ) ;
#109 = DIRECTION ( 'NONE',  ( 1.000000000000000000, 0.000000000000000000, 0.000000000000000000 ) ) ;
#110 = EDGE_CURVE ( 'NONE', #170, #259, #176, .T. ) ;
#111 = FACE_OUTER_BOUND ( 'NONE', #221, .T. ) ;
#112 = FACE_OUTER_BOUND ( 'NONE', #272, .T. ) ;
#113 = CALENDAR_DATE ( 2022, 7, 7 ) ;
#114 = CALENDAR_DATE ( 2022, 7, 7 ) ;
#115 = CARTESIAN_POINT ( 'NONE',  ( 0.000000000000000000, 0.000000000000000000, 0.000000000000000000 ) ) ;
#116 = PERSON_AND_ORGANIZATION ( #241, #157 ) ;
#117 = CIRCLE ( 'NONE', #90, 6.299999999999998934 ) ;
#118 = MECHANICAL_CONTEXT ( 'NONE', #201, 'mechanical' ) ;
#119 = APPROVAL_STATUS ( 'not_yet_approved' ) ;
#120 = EDGE_CURVE ( 'NONE', #270, #170, #86, .T. ) ;
#121 = ORIENTED_EDGE ( 'NONE', *, *, #75, .F. ) ;
#122 = AXIS2_PLACEMENT_3D ( 'NONE', #19, #277, #85 ) ;
#123 = ORIENTED_EDGE ( 'NONE', *, *, #220, .F. ) ;
#124 = ORIENTED_EDGE ( 'NONE', *, *, #220, .T. ) ;
#125 = ORIENTED_EDGE ( 'NONE', *, *, #263, .F. ) ;
#126 = MANIFOLD_SOLID_BREP ( 'Zaoblit1', #202 ) ;
#127 = EDGE_CURVE ( 'NONE', #288, #273, #117, .T. ) ;
#128 = FACE_OUTER_BOUND ( 'NONE', #54, .T. ) ;
#129 = SECURITY_CLASSIFICATION ( '', '', #51 ) ;
#130 = ADVANCED_BREP_SHAPE_REPRESENTATION ( 'bd78', ( #126, #235 ), #145 ) ;
#131 = CYLINDRICAL_SURFACE ( 'NONE', #239, 6.099999999999999645 ) ;
#132 = DIRECTION ( 'NONE',  ( 0.000000000000000000, 0.000000000000000000, 1.000000000000000000 ) ) ;
#133 = DIRECTION ( 'NONE',  ( 1.000000000000000000, 0.000000000000000000, -0.000000000000000000 ) ) ;
#134 = AXIS2_PLACEMENT_3D ( 'NONE', #214, #173, #151 ) ;
#135 = APPROVAL_PERSON_ORGANIZATION ( #161, #160, #158 ) ;
#136 = APPROVAL_STATUS ( 'not_yet_approved' ) ;
#137 = DIRECTION ( 'NONE',  ( 1.224646799147353207E-16, 1.000000000000000000, -0.000000000000000000 ) ) ;
#138 = DATE_AND_TIME ( #140, #197 ) ;
#139 = DIRECTION ( 'NONE',  ( 0.000000000000000000, 0.000000000000000000, 1.000000000000000000 ) ) ;
#140 = CALENDAR_DATE ( 2022, 7, 7 ) ;
#141 = CIRCLE ( 'NONE', #10, 6.099999999999999645 ) ;
#142 = DIRECTION ( 'NONE',  ( 1.000000000000000000, 0.000000000000000000, 0.000000000000000000 ) ) ;
#143 = DIRECTION ( 'NONE',  ( 1.000000000000000000, 0.000000000000000000, 0.000000000000000000 ) ) ;
#144 = CC_DESIGN_PERSON_AND_ORGANIZATION_ASSIGNMENT ( #302, #279, ( #208 ) ) ;
#145 =( GEOMETRIC_REPRESENTATION_CONTEXT ( 3 ) GLOBAL_UNCERTAINTY_ASSIGNED_CONTEXT ( ( #28 ) ) GLOBAL_UNIT_ASSIGNED_CONTEXT ( ( #187, #165, #262 ) ) REPRESENTATION_CONTEXT ( 'NONE', 'WORKASPACE' ) );
#146 = COORDINATED_UNIVERSAL_TIME_OFFSET ( 1, 0, .AHEAD. ) ;
#147 = ORIENTED_EDGE ( 'NONE', *, *, #263, .T. ) ;
#148 = ORIENTED_EDGE ( 'NONE', *, *, #213, .F. ) ;
#149 = VECTOR ( 'NONE', #200, 1000.000000000000000 ) ;
#150 = ORIENTED_EDGE ( 'NONE', *, *, #276, .T. ) ;
#151 = DIRECTION ( 'NONE',  ( 1.000000000000000000, 0.000000000000000000, 0.000000000000000000 ) ) ;
#152 = CARTESIAN_POINT ( 'NONE',  ( 0.000000000000000000, 0.000000000000000000, 7.000000000000000000 ) ) ;
#153 = CARTESIAN_POINT ( 'NONE',  ( 0.000000000000000000, 0.000000000000000000, 7.199999999999984190 ) ) ;
#154 = DIRECTION ( 'NONE',  ( 1.000000000000000000, 0.000000000000000000, 0.000000000000000000 ) ) ;
#155 = DIRECTION ( 'NONE',  ( 0.000000000000000000, 0.000000000000000000, 1.000000000000000000 ) ) ;
#156 = DIRECTION ( 'NONE',  ( 1.000000000000000000, 0.000000000000000000, -0.000000000000000000 ) ) ;
#157 = ORGANIZATION ( 'NEURÈENÝ', 'NEURÈENÝ', '' ) ;
#158 = APPROVAL_ROLE ( '' ) ;
#159 = FACE_OUTER_BOUND ( 'NONE', #13, .T. ) ;
#160 = APPROVAL ( #136, 'NEURÈENÝ' ) ;
#161 = PERSON_AND_ORGANIZATION ( #241, #157 ) ;
#162 = APPROVAL_DATE_TIME ( #282, #195 ) ;
#163 = AXIS2_PLACEMENT_3D ( 'NONE', #301, #137, #88 ) ;
#164 = CC_DESIGN_PERSON_AND_ORGANIZATION_ASSIGNMENT ( #23, #4, ( #193 ) ) ;
#165 =( NAMED_UNIT ( * ) PLANE_ANGLE_UNIT ( ) SI_UNIT ( $, .RADIAN. ) );
#166 = DESIGN_CONTEXT ( 'detailed design', #216, 'design' ) ;
#167 = FACE_OUTER_BOUND ( 'NONE', #269, .T. ) ;
#168 = ORIENTED_EDGE ( 'NONE', *, *, #32, .F. ) ;
#169 = APPROVAL_ROLE ( '' ) ;
#170 = VERTEX_POINT ( 'NONE', #231 ) ;
#171 = DIRECTION ( 'NONE',  ( -0.000000000000000000, -0.000000000000000000, -1.000000000000000000 ) ) ;
#172 = TOROIDAL_SURFACE ( 'NONE', #284, 6.299999999999998934, 0.2000000000000000111 ) ;
#173 = DIRECTION ( 'NONE',  ( 0.000000000000000000, 0.000000000000000000, 1.000000000000000000 ) ) ;
#174 = ORIENTED_EDGE ( 'NONE', *, *, #293, .T. ) ;
#175 = FACE_OUTER_BOUND ( 'NONE', #57, .T. ) ;
#176 = LINE ( 'NONE', #64, #30 ) ;
#177 = AXIS2_PLACEMENT_3D ( 'NONE', #183, #139, #70 ) ;
#178 = CARTESIAN_POINT ( 'NONE',  ( 0.000000000000000000, 0.000000000000000000, 322.0000000000000000 ) ) ;
#179 = DIRECTION ( 'NONE',  ( 0.000000000000000000, 0.000000000000000000, 1.000000000000000000 ) ) ;
#180 = ADVANCED_FACE ( 'NONE', ( #203, #159 ), #43, .T. ) ;
#181 = CARTESIAN_POINT ( 'NONE',  ( 0.000000000000000000, 0.000000000000000000, 7.199999999999984190 ) ) ;
#182 = AXIS2_PLACEMENT_3D ( 'NONE', #181, #155, #20 ) ;
#183 = CARTESIAN_POINT ( 'NONE',  ( 0.000000000000000000, 0.000000000000000000, 7.199999999999984190 ) ) ;
#184 = CYLINDRICAL_SURFACE ( 'NONE', #266, 9.000000000000000000 ) ;
#185 = DIRECTION ( 'NONE',  ( -0.000000000000000000, -0.000000000000000000, -1.000000000000000000 ) ) ;
#186 = AXIS2_PLACEMENT_3D ( 'NONE', #16, #132, #133 ) ;
#187 =( LENGTH_UNIT ( ) NAMED_UNIT ( * ) SI_UNIT ( .MILLI., .METRE. ) );
#188 = PERSON_AND_ORGANIZATION ( #241, #157 ) ;
#189 = CARTESIAN_POINT ( 'NONE',  ( -9.000000000000000000, 0.000000000000000000, 0.000000000000000000 ) ) ;
#190 = VECTOR ( 'NONE', #171, 1000.000000000000000 ) ;
#191 = LOCAL_TIME ( 11, 44, 39.00000000000000000, #209 ) ;
#192 = CARTESIAN_POINT ( 'NONE',  ( 6.299999999999998934, 0.000000000000000000, 7.199999999999984190 ) ) ;
#193 = PRODUCT ( 'bd78', 'bd78', '', ( #118 ) ) ;
#194 = ORIENTED_EDGE ( 'NONE', *, *, #27, .T. ) ;
#195 = APPROVAL ( #287, 'NEURÈENÝ' ) ;
#196 = ORIENTED_EDGE ( 'NONE', *, *, #120, .T. ) ;
#197 = LOCAL_TIME ( 11, 44, 39.00000000000000000, #212 ) ;
#198 = VERTEX_POINT ( 'NONE', #230 ) ;
#199 = PRODUCT_RELATED_PRODUCT_CATEGORY ( 'detail', '', ( #193 ) ) ;
#200 = DIRECTION ( 'NONE',  ( -0.000000000000000000, -0.000000000000000000, -1.000000000000000000 ) ) ;
#201 = APPLICATION_CONTEXT ( 'configuration controlled 3d designs of mechanical parts and assemblies' ) ;
#202 = CLOSED_SHELL ( 'NONE', ( #289, #238, #307, #79, #180, #243, #297, #93, #274 ) ) ;
#203 = FACE_BOUND ( 'NONE', #37, .T. ) ;
#204 = DIRECTION ( 'NONE',  ( 0.000000000000000000, 0.000000000000000000, 1.000000000000000000 ) ) ;
#205 = LINE ( 'NONE', #281, #149 ) ;
#206 = DIRECTION ( 'NONE',  ( 0.000000000000000000, 0.000000000000000000, 1.000000000000000000 ) ) ;
#207 = CIRCLE ( 'NONE', #234, 0.1999999999999996503 ) ;
#208 = PRODUCT_DEFINITION_FORMATION_WITH_SPECIFIED_SOURCE ( 'LIBOVOLNÝ', '', #193, .NOT_KNOWN. ) ;
#209 = COORDINATED_UNIVERSAL_TIME_OFFSET ( 1, 0, .AHEAD. ) ;
#210 = CC_DESIGN_DATE_AND_TIME_ASSIGNMENT ( #68, #46, ( #129 ) ) ;
#211 = CIRCLE ( 'NONE', #163, 0.1999999999999996503 ) ;
#212 = COORDINATED_UNIVERSAL_TIME_OFFSET ( 1, 0, .AHEAD. ) ;
#213 = EDGE_CURVE ( 'NONE', #259, #288, #211, .T. ) ;
#214 = CARTESIAN_POINT ( 'NONE',  ( 0.000000000000000000, 0.000000000000000000, 0.000000000000000000 ) ) ;
#215 = PERSON_AND_ORGANIZATION_ROLE ( 'creator' ) ;
#216 = APPLICATION_CONTEXT ( 'configuration controlled 3d designs of mechanical parts and assemblies' ) ;
#217 = PRODUCT_DEFINITION_SHAPE ( 'NONE', 'NONE',  #71 ) ;
#218 = LINE ( 'NONE', #60, #190 ) ;
#219 = ORIENTED_EDGE ( 'NONE', *, *, #223, .F. ) ;
#220 = EDGE_CURVE ( 'NONE', #170, #270, #280, .T. ) ;
#221 = EDGE_LOOP ( 'NONE', ( #124, #196 ) ) ;
#222 = CARTESIAN_POINT ( 'NONE',  ( 0.000000000000000000, 0.000000000000000000, 7.000000000000000000 ) ) ;
#223 = EDGE_CURVE ( 'NONE', #273, #288, #53, .T. ) ;
#224 = LOCAL_TIME ( 11, 44, 39.00000000000000000, #146 ) ;
#225 = CARTESIAN_POINT ( 'NONE',  ( 6.099999999999999645, 7.470345474798854293E-16, 322.0000000000000000 ) ) ;
#226 = DIRECTION ( 'NONE',  ( 0.000000000000000000, 0.000000000000000000, 1.000000000000000000 ) ) ;
#227 = DIRECTION ( 'NONE',  ( -0.000000000000000000, -0.000000000000000000, -1.000000000000000000 ) ) ;
#228 = CIRCLE ( 'NONE', #96, 9.000000000000000000 ) ;
#229 = LOCAL_TIME ( 11, 44, 39.00000000000000000, #47 ) ;
#230 = CARTESIAN_POINT ( 'NONE',  ( 9.000000000000000000, 1.102182119232617714E-15, 7.000000000000000000 ) ) ;
#231 = CARTESIAN_POINT ( 'NONE',  ( -6.099999999999999645, 0.000000000000000000, 322.0000000000000000 ) ) ;
#232 = APPLICATION_PROTOCOL_DEFINITION ( 'international standard', 'config_control_design', 1994, #201 ) ;
#233 = PERSON_AND_ORGANIZATION_ROLE ( 'creator' ) ;
#234 = AXIS2_PLACEMENT_3D ( 'NONE', #192, #290, #107 ) ;
#235 = AXIS2_PLACEMENT_3D ( 'NONE', #115, #72, #29 ) ;
#236 = CARTESIAN_POINT ( 'NONE',  ( 0.000000000000000000, 0.000000000000000000, 7.000000000000000000 ) ) ;
#237 = DIRECTION ( 'NONE',  ( -0.000000000000000000, -0.000000000000000000, -1.000000000000000000 ) ) ;
#238 = ADVANCED_FACE ( 'NONE', ( #89 ), #131, .T. ) ;
#239 = AXIS2_PLACEMENT_3D ( 'NONE', #18, #21, #278 ) ;
#240 = CALENDAR_DATE ( 2022, 7, 7 ) ;
#241 = PERSON ( 'NEURÈENÝ', 'NEURÈENÝ', 'NEURÈENÝ', ('NEURÈENÝ'), ('NEURÈENÝ'), ('NEURÈENÝ') ) ;
#242 = ORIENTED_EDGE ( 'NONE', *, *, #110, .T. ) ;
#243 = ADVANCED_FACE ( 'NONE', ( #112 ), #66, .F. ) ;
#244 = ORIENTED_EDGE ( 'NONE', *, *, #27, .F. ) ;
#245 = APPROVAL_PERSON_ORGANIZATION ( #188, #195, #169 ) ;
#246 = DIRECTION ( 'NONE',  ( 0.000000000000000000, 0.000000000000000000, 1.000000000000000000 ) ) ;
#247 = ORIENTED_EDGE ( 'NONE', *, *, #127, .T. ) ;
#248 = DIRECTION ( 'NONE',  ( 1.000000000000000000, 0.000000000000000000, 0.000000000000000000 ) ) ;
#249 = AXIS2_PLACEMENT_3D ( 'NONE', #250, #226, #154 ) ;
#250 = CARTESIAN_POINT ( 'NONE',  ( 0.000000000000000000, 0.000000000000000000, 322.0000000000000000 ) ) ;
#251 = CARTESIAN_POINT ( 'NONE',  ( 0.000000000000000000, 0.000000000000000000, 7.000000000000000000 ) ) ;
#252 = EDGE_CURVE ( 'NONE', #259, #55, #261, .T. ) ;
#253 = CARTESIAN_POINT ( 'NONE',  ( 0.000000000000000000, 0.000000000000000000, 7.000000000000000000 ) ) ;
#254 = CIRCLE ( 'NONE', #73, 9.000000000000000000 ) ;
#255 = CYLINDRICAL_SURFACE ( 'NONE', #24, 9.000000000000000000 ) ;
#256 = PERSON_AND_ORGANIZATION_ROLE ( 'classification_officer' ) ;
#257 = CARTESIAN_POINT ( 'NONE',  ( 6.299999999999998934, 0.000000000000000000, 6.999999999999992006 ) ) ;
#258 = PERSON_AND_ORGANIZATION ( #241, #157 ) ;
#259 = VERTEX_POINT ( 'NONE', #108 ) ;
#260 = DATE_AND_TIME ( #304, #191 ) ;
#261 = CIRCLE ( 'NONE', #182, 6.099999999999999645 ) ;
#262 =( NAMED_UNIT ( * ) SI_UNIT ( $, .STERADIAN. ) SOLID_ANGLE_UNIT ( ) );
#263 = EDGE_CURVE ( 'NONE', #80, #38, #205, .T. ) ;
#264 = DATE_AND_TIME ( #240, #224 ) ;
#265 = DATE_TIME_ROLE ( 'creation_date' ) ;
#266 = AXIS2_PLACEMENT_3D ( 'NONE', #236, #94, #26 ) ;
#267 = ORIENTED_EDGE ( 'NONE', *, *, #32, .T. ) ;
#268 = CC_DESIGN_PERSON_AND_ORGANIZATION_ASSIGNMENT ( #6, #256, ( #129 ) ) ;
#269 = EDGE_LOOP ( 'NONE', ( #244, #5, #267, #125 ) ) ;
#270 = VERTEX_POINT ( 'NONE', #225 ) ;
#271 = APPROVAL_PERSON_ORGANIZATION ( #33, #82, #52 ) ;
#272 = EDGE_LOOP ( 'NONE', ( #104, #168 ) ) ;
#273 = VERTEX_POINT ( 'NONE', #257 ) ;
#274 = ADVANCED_FACE ( 'NONE', ( #128 ), #172, .F. ) ;
#275 = DIRECTION ( 'NONE',  ( 1.000000000000000000, 0.000000000000000000, 0.000000000000000000 ) ) ;
#276 = EDGE_CURVE ( 'NONE', #38, #291, #254, .T. ) ;
#277 = DIRECTION ( 'NONE',  ( -0.000000000000000000, -0.000000000000000000, -1.000000000000000000 ) ) ;
#278 = DIRECTION ( 'NONE',  ( -1.000000000000000000, 0.000000000000000000, 0.000000000000000000 ) ) ;
#279 = PERSON_AND_ORGANIZATION_ROLE ( 'design_supplier' ) ;
#280 = CIRCLE ( 'NONE', #44, 6.099999999999999645 ) ;
#281 = CARTESIAN_POINT ( 'NONE',  ( -9.000000000000000000, 0.000000000000000000, 7.000000000000000000 ) ) ;
#282 = DATE_AND_TIME ( #114, #229 ) ;
#283 = DIRECTION ( 'NONE',  ( -1.000000000000000000, 0.000000000000000000, 0.000000000000000000 ) ) ;
#284 = AXIS2_PLACEMENT_3D ( 'NONE', #95, #206, #143 ) ;
#285 = CYLINDRICAL_SURFACE ( 'NONE', #58, 6.099999999999999645 ) ;
#286 = SHAPE_DEFINITION_REPRESENTATION ( #217, #130 ) ;
#287 = APPROVAL_STATUS ( 'not_yet_approved' ) ;
#288 = VERTEX_POINT ( 'NONE', #50 ) ;
#289 = ADVANCED_FACE ( 'NONE', ( #303 ), #11, .F. ) ;
#290 = DIRECTION ( 'NONE',  ( 0.000000000000000000, -1.000000000000000000, 0.000000000000000000 ) ) ;
#291 = VERTEX_POINT ( 'NONE', #92 ) ;
#292 = EDGE_LOOP ( 'NONE', ( #14, #174, #59, #35 ) ) ;
#293 = EDGE_CURVE ( 'NONE', #270, #55, #25, .T. ) ;
#294 = ORIENTED_EDGE ( 'NONE', *, *, #7, .F. ) ;
#295 = CARTESIAN_POINT ( 'NONE',  ( 0.000000000000000000, 0.000000000000000000, 0.000000000000000000 ) ) ;
#296 = CARTESIAN_POINT ( 'NONE',  ( -9.000000000000000000, 0.000000000000000000, 7.000000000000000000 ) ) ;
#297 = ADVANCED_FACE ( 'NONE', ( #1 ), #285, .T. ) ;
#298 = AXIS2_PLACEMENT_3D ( 'NONE', #65, #42, #156 ) ;
#299 = DIRECTION ( 'NONE',  ( -1.000000000000000000, 0.000000000000000000, 0.000000000000000000 ) ) ;
#300 = DIRECTION ( 'NONE',  ( -0.000000000000000000, -0.000000000000000000, -1.000000000000000000 ) ) ;
#301 = CARTESIAN_POINT ( 'NONE',  ( -6.299999999999998934, 7.715274834628324392E-16, 7.199999999999984190 ) ) ;
#302 = PERSON_AND_ORGANIZATION ( #241, #157 ) ;
#303 = FACE_OUTER_BOUND ( 'NONE', #103, .T. ) ;
#304 = CALENDAR_DATE ( 2022, 7, 7 ) ;
#305 = ORIENTED_EDGE ( 'NONE', *, *, #252, .F. ) ;
#306 = DIRECTION ( 'NONE',  ( 0.000000000000000000, 0.000000000000000000, 1.000000000000000000 ) ) ;
#307 = ADVANCED_FACE ( 'NONE', ( #167 ), #184, .T. ) ;
ENDSEC;
END-ISO-10303-21;
