ISO-10303-21;
HEADER;
FILE_DESCRIPTION (( 'STEP AP203' ),
    '1' );
FILE_NAME ('a615.STEP',
    '2022-07-07T10:24:27',
    ( '' ),
    ( '' ),
    'SwSTEP 2.0',
    'SolidWorks 2019',
    '' );
FILE_SCHEMA (( 'CONFIG_CONTROL_DESIGN' ));
ENDSEC;

DATA;
#1 = ORIENTED_EDGE ( 'NONE', *, *, #207, .T. ) ;
#2 = ADVANCED_FACE ( 'NONE', ( #162 ), #128, .F. ) ;
#3 = EDGE_LOOP ( 'NONE', ( #59, #234, #290, #268 ) ) ;
#4 = AXIS2_PLACEMENT_3D ( 'NONE', #43, #66, #176 ) ;
#5 = CARTESIAN_POINT ( 'NONE',  ( 0.000000000000000000, 0.000000000000000000, 163.0000000000000000 ) ) ;
#6 = CARTESIAN_POINT ( 'NONE',  ( 0.000000000000000000, 0.000000000000000000, 0.000000000000000000 ) ) ;
#7 = DIRECTION ( 'NONE',  ( 0.000000000000000000, 0.000000000000000000, 1.000000000000000000 ) ) ;
#8 = LINE ( 'NONE', #89, #23 ) ;
#9 = AXIS2_PLACEMENT_3D ( 'NONE', #140, #15, #265 ) ;
#10 = DIRECTION ( 'NONE',  ( -1.000000000000000000, 0.000000000000000000, 0.000000000000000000 ) ) ;
#11 = DIRECTION ( 'NONE',  ( 0.000000000000000000, 0.000000000000000000, 1.000000000000000000 ) ) ;
#12 = DIRECTION ( 'NONE',  ( 1.000000000000000000, 0.000000000000000000, 0.000000000000000000 ) ) ;
#13 = DIRECTION ( 'NONE',  ( 0.000000000000000000, 0.000000000000000000, 1.000000000000000000 ) ) ;
#14 = ADVANCED_FACE ( 'NONE', ( #217, #221 ), #203, .T. ) ;
#15 = DIRECTION ( 'NONE',  ( 0.000000000000000000, 0.000000000000000000, 1.000000000000000000 ) ) ;
#16 = CARTESIAN_POINT ( 'NONE',  ( 0.000000000000000000, 0.000000000000000000, 3.000000000000000000 ) ) ;
#17 = CIRCLE ( 'NONE', #284, 0.2000000000000000944 ) ;
#18 = DIRECTION ( 'NONE',  ( 1.000000000000000000, 0.000000000000000000, 0.000000000000000000 ) ) ;
#19 = CC_DESIGN_SECURITY_CLASSIFICATION ( #191, ( #281 ) ) ;
#20 = CC_DESIGN_APPROVAL ( #139, ( #191 ) ) ;
#21 = APPLICATION_PROTOCOL_DEFINITION ( 'international standard', 'config_control_design', 1994, #163 ) ;
#22 = PRODUCT_DEFINITION_SHAPE ( 'NONE', 'NONE',  #54 ) ;
#23 = VECTOR ( 'NONE', #294, 1000.000000000000000 ) ;
#24 = PERSON_AND_ORGANIZATION ( #299, #150 ) ;
#25 = CIRCLE ( 'NONE', #9, 2.100000000000000089 ) ;
#26 = PERSON_AND_ORGANIZATION ( #299, #150 ) ;
#27 = ORIENTED_EDGE ( 'NONE', *, *, #67, .T. ) ;
#28 = ADVANCED_FACE ( 'NONE', ( #40 ), #84, .T. ) ;
#29 = PERSON_AND_ORGANIZATION ( #299, #150 ) ;
#30 = EDGE_CURVE ( 'NONE', #149, #257, #125, .T. ) ;
#31 = ORIENTED_EDGE ( 'NONE', *, *, #116, .F. ) ;
#32 = ORIENTED_EDGE ( 'NONE', *, *, #260, .T. ) ;
#33 = CARTESIAN_POINT ( 'NONE',  ( -2.100000000000000089, 0.000000000000000000, 3.200000000000008171 ) ) ;
#34 = CC_DESIGN_PERSON_AND_ORGANIZATION_ASSIGNMENT ( #24, #79, ( #191 ) ) ;
#35 = EDGE_LOOP ( 'NONE', ( #196, #283, #57, #259 ) ) ;
#36 = LINE ( 'NONE', #246, #195 ) ;
#37 = EDGE_LOOP ( 'NONE', ( #56, #63, #193, #134 ) ) ;
#38 = CARTESIAN_POINT ( 'NONE',  ( 4.000000000000000000, 4.898587196589412829E-16, 0.000000000000000000 ) ) ;
#39 = CIRCLE ( 'NONE', #210, 0.2000000000000000944 ) ;
#40 = FACE_OUTER_BOUND ( 'NONE', #101, .T. ) ;
#41 = DIRECTION ( 'NONE',  ( -0.000000000000000000, -0.000000000000000000, -1.000000000000000000 ) ) ;
#42 = DIRECTION ( 'NONE',  ( -0.000000000000000000, -0.000000000000000000, -1.000000000000000000 ) ) ;
#43 = CARTESIAN_POINT ( 'NONE',  ( 0.000000000000000000, 0.000000000000000000, 163.0000000000000000 ) ) ;
#44 = DIRECTION ( 'NONE',  ( -0.000000000000000000, -0.000000000000000000, -1.000000000000000000 ) ) ;
#45 = DIRECTION ( 'NONE',  ( 1.000000000000000000, 0.000000000000000000, 0.000000000000000000 ) ) ;
#46 = CC_DESIGN_DATE_AND_TIME_ASSIGNMENT ( #277, #97, ( #54 ) ) ;
#47 = APPROVAL_PERSON_ORGANIZATION ( #29, #139, #214 ) ;
#48 = APPROVAL_DATE_TIME ( #248, #139 ) ;
#49 = PRODUCT ( 'a615', 'a615', '', ( #147 ) ) ;
#50 = CARTESIAN_POINT ( 'NONE',  ( 0.000000000000000000, 0.000000000000000000, 0.000000000000000000 ) ) ;
#51 = CIRCLE ( 'NONE', #301, 4.000000000000000000 ) ;
#52 = COORDINATED_UNIVERSAL_TIME_OFFSET ( 1, 0, .AHEAD. ) ;
#53 = AXIS2_PLACEMENT_3D ( 'NONE', #50, #115, #118 ) ;
#54 = PRODUCT_DEFINITION ( 'NEZNÁMÝ', '', #281, #75 ) ;
#55 = DATE_AND_TIME ( #254, #227 ) ;
#56 = ORIENTED_EDGE ( 'NONE', *, *, #260, .F. ) ;
#57 = ORIENTED_EDGE ( 'NONE', *, *, #264, .T. ) ;
#58 = TOROIDAL_SURFACE ( 'NONE', #70, 2.300000000000000266, 0.2000000000000000111 ) ;
#59 = ORIENTED_EDGE ( 'NONE', *, *, #212, .F. ) ;
#60 = ORIENTED_EDGE ( 'NONE', *, *, #207, .F. ) ;
#61 = EDGE_CURVE ( 'NONE', #199, #103, #51, .T. ) ;
#62 = CARTESIAN_POINT ( 'NONE',  ( -2.300000000000000266, 2.816687638038912549E-16, 3.200000000000008171 ) ) ;
#63 = ORIENTED_EDGE ( 'NONE', *, *, #305, .T. ) ;
#64 = DIRECTION ( 'NONE',  ( 0.000000000000000000, 0.000000000000000000, 1.000000000000000000 ) ) ;
#65 = ORIENTED_EDGE ( 'NONE', *, *, #276, .F. ) ;
#66 = DIRECTION ( 'NONE',  ( -0.000000000000000000, -0.000000000000000000, -1.000000000000000000 ) ) ;
#67 = EDGE_CURVE ( 'NONE', #235, #257, #39, .T. ) ;
#68 = AXIS2_PLACEMENT_3D ( 'NONE', #226, #165, #245 ) ;
#69 = ORIENTED_EDGE ( 'NONE', *, *, #61, .F. ) ;
#70 = AXIS2_PLACEMENT_3D ( 'NONE', #238, #112, #202 ) ;
#71 = CARTESIAN_POINT ( 'NONE',  ( -2.100000000000000089, 0.000000000000000000, 163.0000000000000000 ) ) ;
#72 = CYLINDRICAL_SURFACE ( 'NONE', #269, 4.000000000000000000 ) ;
#73 = CARTESIAN_POINT ( 'NONE',  ( 4.000000000000000000, 4.898587196589412829E-16, 3.000000000000000000 ) ) ;
#74 = CALENDAR_DATE ( 2022, 7, 7 ) ;
#75 = DESIGN_CONTEXT ( 'detailed design', #306, 'design' ) ;
#76 = CIRCLE ( 'NONE', #107, 4.000000000000000000 ) ;
#77 = CALENDAR_DATE ( 2022, 7, 7 ) ;
#78 = APPROVAL_ROLE ( '' ) ;
#79 = PERSON_AND_ORGANIZATION_ROLE ( 'classification_officer' ) ;
#80 = AXIS2_PLACEMENT_3D ( 'NONE', #93, #129, #90 ) ;
#81 = PRODUCT_RELATED_PRODUCT_CATEGORY ( 'detail', '', ( #49 ) ) ;
#82 = CLOSED_SHELL ( 'NONE', ( #189, #273, #232, #155, #14, #2, #192, #28, #229 ) ) ;
#83 = ORIENTED_EDGE ( 'NONE', *, *, #172, .F. ) ;
#84 = PLANE ( 'NONE',  #205 ) ;
#85 = AXIS2_PLACEMENT_3D ( 'NONE', #183, #291, #220 ) ;
#86 = ORIENTED_EDGE ( 'NONE', *, *, #212, .T. ) ;
#87 = CARTESIAN_POINT ( 'NONE',  ( 0.000000000000000000, 0.000000000000000000, 163.0000000000000000 ) ) ;
#88 = CARTESIAN_POINT ( 'NONE',  ( 2.300000000000000266, 0.000000000000000000, 3.200000000000008171 ) ) ;
#89 = CARTESIAN_POINT ( 'NONE',  ( -4.000000000000000000, 0.000000000000000000, 3.000000000000000000 ) ) ;
#90 = DIRECTION ( 'NONE',  ( 1.000000000000000000, 0.000000000000000000, 0.000000000000000000 ) ) ;
#91 = CARTESIAN_POINT ( 'NONE',  ( 0.000000000000000000, 0.000000000000000000, 3.000000000000000000 ) ) ;
#92 = APPROVAL_PERSON_ORGANIZATION ( #278, #218, #302 ) ;
#93 = CARTESIAN_POINT ( 'NONE',  ( 0.000000000000000000, 0.000000000000000000, 3.200000000000008171 ) ) ;
#94 = CIRCLE ( 'NONE', #85, 2.100000000000000089 ) ;
#95 = CALENDAR_DATE ( 2022, 7, 7 ) ;
#96 = CC_DESIGN_PERSON_AND_ORGANIZATION_ASSIGNMENT ( #213, #187, ( #281 ) ) ;
#97 = DATE_TIME_ROLE ( 'creation_date' ) ;
#98 = DATE_AND_TIME ( #77, #152 ) ;
#99 = COORDINATED_UNIVERSAL_TIME_OFFSET ( 1, 0, .AHEAD. ) ;
#100 = APPROVAL ( #230, 'NEURÈENÝ' ) ;
#101 = EDGE_LOOP ( 'NONE', ( #119, #32 ) ) ;
#102 = AXIS2_PLACEMENT_3D ( 'NONE', #270, #137, #12 ) ;
#103 = VERTEX_POINT ( 'NONE', #262 ) ;
#104 = EDGE_LOOP ( 'NONE', ( #190, #69 ) ) ;
#105 = CYLINDRICAL_SURFACE ( 'NONE', #4, 2.100000000000000089 ) ;
#106 = VECTOR ( 'NONE', #237, 1000.000000000000000 ) ;
#107 = AXIS2_PLACEMENT_3D ( 'NONE', #206, #7, #267 ) ;
#108 = ORIENTED_EDGE ( 'NONE', *, *, #114, .T. ) ;
#109 = FACE_OUTER_BOUND ( 'NONE', #151, .T. ) ;
#110 = ORIENTED_EDGE ( 'NONE', *, *, #30, .T. ) ;
#111 = DIRECTION ( 'NONE',  ( 1.000000000000000000, 0.000000000000000000, 0.000000000000000000 ) ) ;
#112 = DIRECTION ( 'NONE',  ( 0.000000000000000000, 0.000000000000000000, 1.000000000000000000 ) ) ;
#113 = CC_DESIGN_APPROVAL ( #218, ( #54 ) ) ;
#114 = EDGE_CURVE ( 'NONE', #233, #103, #8, .T. ) ;
#115 = DIRECTION ( 'NONE',  ( 0.000000000000000000, 0.000000000000000000, 1.000000000000000000 ) ) ;
#116 = EDGE_CURVE ( 'NONE', #159, #149, #17, .T. ) ;
#117 = APPROVAL_DATE_TIME ( #186, #218 ) ;
#118 = DIRECTION ( 'NONE',  ( 1.000000000000000000, 0.000000000000000000, 0.000000000000000000 ) ) ;
#119 = ORIENTED_EDGE ( 'NONE', *, *, #241, .T. ) ;
#120 = APPROVAL_STATUS ( 'not_yet_approved' ) ;
#121 = ADVANCED_BREP_SHAPE_REPRESENTATION ( 'a615', ( #143, #53 ), #181 ) ;
#122 = AXIS2_PLACEMENT_3D ( 'NONE', #132, #64, #45 ) ;
#123 = ORIENTED_EDGE ( 'NONE', *, *, #171, .F. ) ;
#124 = ORIENTED_EDGE ( 'NONE', *, *, #185, .F. ) ;
#125 = CIRCLE ( 'NONE', #174, 2.300000000000000266 ) ;
#126 = CIRCLE ( 'NONE', #122, 4.000000000000000000 ) ;
#127 = LINE ( 'NONE', #154, #106 ) ;
#128 = PLANE ( 'NONE',  #258 ) ;
#129 = DIRECTION ( 'NONE',  ( 0.000000000000000000, 0.000000000000000000, 1.000000000000000000 ) ) ;
#130 = CC_DESIGN_PERSON_AND_ORGANIZATION_ASSIGNMENT ( #208, #142, ( #49 ) ) ;
#131 = DIRECTION ( 'NONE',  ( 1.000000000000000000, 0.000000000000000000, -0.000000000000000000 ) ) ;
#132 = CARTESIAN_POINT ( 'NONE',  ( 0.000000000000000000, 0.000000000000000000, 3.000000000000000000 ) ) ;
#133 = AXIS2_PLACEMENT_3D ( 'NONE', #292, #13, #197 ) ;
#134 = ORIENTED_EDGE ( 'NONE', *, *, #264, .F. ) ;
#135 = FACE_OUTER_BOUND ( 'NONE', #285, .T. ) ;
#136 = DIRECTION ( 'NONE',  ( -1.000000000000000000, 0.000000000000000000, 0.000000000000000000 ) ) ;
#137 = DIRECTION ( 'NONE',  ( 0.000000000000000000, 0.000000000000000000, 1.000000000000000000 ) ) ;
#138 = DIRECTION ( 'NONE',  ( 1.000000000000000000, 0.000000000000000000, 0.000000000000000000 ) ) ;
#139 = APPROVAL ( #120, 'NEURÈENÝ' ) ;
#140 = CARTESIAN_POINT ( 'NONE',  ( 0.000000000000000000, 0.000000000000000000, 3.200000000000008171 ) ) ;
#141 = AXIS2_PLACEMENT_3D ( 'NONE', #200, #41, #293 ) ;
#142 = PERSON_AND_ORGANIZATION_ROLE ( 'design_owner' ) ;
#143 = MANIFOLD_SOLID_BREP ( 'Zaoblit1', #82 ) ;
#144 = PERSON_AND_ORGANIZATION ( #299, #150 ) ;
#145 = AXIS2_PLACEMENT_3D ( 'NONE', #16, #44, #138 ) ;
#146 = CALENDAR_DATE ( 2022, 7, 7 ) ;
#147 = MECHANICAL_CONTEXT ( 'NONE', #163, 'mechanical' ) ;
#148 = ORIENTED_EDGE ( 'NONE', *, *, #255, .T. ) ;
#149 = VERTEX_POINT ( 'NONE', #179 ) ;
#150 = ORGANIZATION ( 'NEURÈENÝ', 'NEURÈENÝ', '' ) ;
#151 = EDGE_LOOP ( 'NONE', ( #83, #271, #124, #282 ) ) ;
#152 = LOCAL_TIME ( 12, 24, 27.00000000000000000, #167 ) ;
#153 = APPROVAL_PERSON_ORGANIZATION ( #26, #100, #78 ) ;
#154 = CARTESIAN_POINT ( 'NONE',  ( 4.000000000000000000, 4.898587196589412829E-16, 3.000000000000000000 ) ) ;
#155 = ADVANCED_FACE ( 'NONE', ( #243 ), #72, .T. ) ;
#156 = DIRECTION ( 'NONE',  ( -0.000000000000000000, -0.000000000000000000, -1.000000000000000000 ) ) ;
#157 = DIRECTION ( 'NONE',  ( 0.000000000000000000, -1.000000000000000000, 0.000000000000000000 ) ) ;
#158 = DIRECTION ( 'NONE',  ( -0.000000000000000000, -0.000000000000000000, -1.000000000000000000 ) ) ;
#159 = VERTEX_POINT ( 'NONE', #33 ) ;
#160 =( LENGTH_UNIT ( ) NAMED_UNIT ( * ) SI_UNIT ( .MILLI., .METRE. ) );
#161 = CIRCLE ( 'NONE', #102, 4.000000000000000000 ) ;
#162 = FACE_OUTER_BOUND ( 'NONE', #104, .T. ) ;
#163 = APPLICATION_CONTEXT ( 'configuration controlled 3d designs of mechanical parts and assemblies' ) ;
#164 = FACE_OUTER_BOUND ( 'NONE', #37, .T. ) ;
#165 = DIRECTION ( 'NONE',  ( 0.000000000000000000, 0.000000000000000000, 1.000000000000000000 ) ) ;
#166 = CARTESIAN_POINT ( 'NONE',  ( -2.100000000000000089, 0.000000000000000000, 163.0000000000000000 ) ) ;
#167 = COORDINATED_UNIVERSAL_TIME_OFFSET ( 1, 0, .AHEAD. ) ;
#168 = APPLICATION_PROTOCOL_DEFINITION ( 'international standard', 'config_control_design', 1994, #306 ) ;
#169 = CIRCLE ( 'NONE', #145, 2.300000000000000266 ) ;
#170 = COORDINATED_UNIVERSAL_TIME_OFFSET ( 1, 0, .AHEAD. ) ;
#171 = EDGE_CURVE ( 'NONE', #256, #199, #127, .T. ) ;
#172 = EDGE_CURVE ( 'NONE', #159, #235, #274, .T. ) ;
#173 = DIRECTION ( 'NONE',  ( 0.000000000000000000, 0.000000000000000000, -1.000000000000000000 ) ) ;
#174 = AXIS2_PLACEMENT_3D ( 'NONE', #175, #224, #201 ) ;
#175 = CARTESIAN_POINT ( 'NONE',  ( 0.000000000000000000, 0.000000000000000000, 3.000000000000000000 ) ) ;
#176 = DIRECTION ( 'NONE',  ( -1.000000000000000000, 0.000000000000000000, 0.000000000000000000 ) ) ;
#177 = DIRECTION ( 'NONE',  ( -1.000000000000000000, 1.224646799147353207E-16, 0.000000000000000000 ) ) ;
#178 = CARTESIAN_POINT ( 'NONE',  ( 2.100000000000000089, 2.571758278209441957E-16, 163.0000000000000000 ) ) ;
#179 = CARTESIAN_POINT ( 'NONE',  ( -2.300000000000000266, 2.816687638038912549E-16, 3.000000000000004441 ) ) ;
#180 = CARTESIAN_POINT ( 'NONE',  ( -4.000000000000000000, 0.000000000000000000, 3.000000000000000000 ) ) ;
#181 =( GEOMETRIC_REPRESENTATION_CONTEXT ( 3 ) GLOBAL_UNCERTAINTY_ASSIGNED_CONTEXT ( ( #275 ) ) GLOBAL_UNIT_ASSIGNED_CONTEXT ( ( #160, #184, #211 ) ) REPRESENTATION_CONTEXT ( 'NONE', 'WORKASPACE' ) );
#182 = ORIENTED_EDGE ( 'NONE', *, *, #30, .F. ) ;
#183 = CARTESIAN_POINT ( 'NONE',  ( 0.000000000000000000, 0.000000000000000000, 163.0000000000000000 ) ) ;
#184 =( NAMED_UNIT ( * ) PLANE_ANGLE_UNIT ( ) SI_UNIT ( $, .RADIAN. ) );
#185 = EDGE_CURVE ( 'NONE', #257, #149, #169, .T. ) ;
#186 = DATE_AND_TIME ( #95, #236 ) ;
#187 = PERSON_AND_ORGANIZATION_ROLE ( 'creator' ) ;
#188 = PERSON_AND_ORGANIZATION_ROLE ( 'design_supplier' ) ;
#189 = ADVANCED_FACE ( 'NONE', ( #109 ), #58, .F. ) ;
#190 = ORIENTED_EDGE ( 'NONE', *, *, #255, .F. ) ;
#191 = SECURITY_CLASSIFICATION ( '', '', #279 ) ;
#192 = ADVANCED_FACE ( 'NONE', ( #204 ), #240, .T. ) ;
#193 = ORIENTED_EDGE ( 'NONE', *, *, #276, .T. ) ;
#194 = VERTEX_POINT ( 'NONE', #178 ) ;
#195 = VECTOR ( 'NONE', #158, 1000.000000000000000 ) ;
#196 = ORIENTED_EDGE ( 'NONE', *, *, #305, .F. ) ;
#197 = DIRECTION ( 'NONE',  ( 1.000000000000000000, 0.000000000000000000, -0.000000000000000000 ) ) ;
#198 = FACE_OUTER_BOUND ( 'NONE', #3, .T. ) ;
#199 = VERTEX_POINT ( 'NONE', #38 ) ;
#200 = CARTESIAN_POINT ( 'NONE',  ( 0.000000000000000000, 0.000000000000000000, 163.0000000000000000 ) ) ;
#201 = DIRECTION ( 'NONE',  ( 1.000000000000000000, 0.000000000000000000, 0.000000000000000000 ) ) ;
#202 = DIRECTION ( 'NONE',  ( 1.000000000000000000, 0.000000000000000000, 0.000000000000000000 ) ) ;
#203 = PLANE ( 'NONE',  #133 ) ;
#204 = FACE_OUTER_BOUND ( 'NONE', #35, .T. ) ;
#205 = AXIS2_PLACEMENT_3D ( 'NONE', #5, #11, #223 ) ;
#206 = CARTESIAN_POINT ( 'NONE',  ( 0.000000000000000000, 0.000000000000000000, 3.000000000000000000 ) ) ;
#207 = EDGE_CURVE ( 'NONE', #233, #256, #76, .T. ) ;
#208 = PERSON_AND_ORGANIZATION ( #299, #150 ) ;
#209 = APPROVAL_STATUS ( 'not_yet_approved' ) ;
#210 = AXIS2_PLACEMENT_3D ( 'NONE', #88, #157, #173 ) ;
#211 =( NAMED_UNIT ( * ) SI_UNIT ( $, .STERADIAN. ) SOLID_ANGLE_UNIT ( ) );
#212 = EDGE_CURVE ( 'NONE', #256, #233, #126, .T. ) ;
#213 = PERSON_AND_ORGANIZATION ( #299, #150 ) ;
#214 = APPROVAL_ROLE ( '' ) ;
#215 = CIRCLE ( 'NONE', #249, 2.100000000000000089 ) ;
#216 = EDGE_LOOP ( 'NONE', ( #266, #110 ) ) ;
#217 = FACE_BOUND ( 'NONE', #216, .T. ) ;
#218 = APPROVAL ( #209, 'NEURÈENÝ' ) ;
#219 = DIRECTION ( 'NONE',  ( 0.000000000000000000, 0.000000000000000000, 1.000000000000000000 ) ) ;
#220 = DIRECTION ( 'NONE',  ( 1.000000000000000000, 0.000000000000000000, 0.000000000000000000 ) ) ;
#221 = FACE_OUTER_BOUND ( 'NONE', #261, .T. ) ;
#222 = CARTESIAN_POINT ( 'NONE',  ( 2.100000000000000089, 2.571758278209441957E-16, 3.200000000000008171 ) ) ;
#223 = DIRECTION ( 'NONE',  ( 1.000000000000000000, 0.000000000000000000, -0.000000000000000000 ) ) ;
#224 = DIRECTION ( 'NONE',  ( -0.000000000000000000, -0.000000000000000000, -1.000000000000000000 ) ) ;
#225 = LINE ( 'NONE', #71, #280 ) ;
#226 = CARTESIAN_POINT ( 'NONE',  ( 0.000000000000000000, 0.000000000000000000, 3.200000000000008171 ) ) ;
#227 = LOCAL_TIME ( 12, 24, 27.00000000000000000, #170 ) ;
#228 = SHAPE_DEFINITION_REPRESENTATION ( #22, #121 ) ;
#229 = ADVANCED_FACE ( 'NONE', ( #135 ), #298, .F. ) ;
#230 = APPROVAL_STATUS ( 'not_yet_approved' ) ;
#231 = DATE_TIME_ROLE ( 'classification_date' ) ;
#232 = ADVANCED_FACE ( 'NONE', ( #198 ), #295, .T. ) ;
#233 = VERTEX_POINT ( 'NONE', #180 ) ;
#234 = ORIENTED_EDGE ( 'NONE', *, *, #171, .T. ) ;
#235 = VERTEX_POINT ( 'NONE', #222 ) ;
#236 = LOCAL_TIME ( 12, 24, 27.00000000000000000, #52 ) ;
#237 = DIRECTION ( 'NONE',  ( -0.000000000000000000, -0.000000000000000000, -1.000000000000000000 ) ) ;
#238 = CARTESIAN_POINT ( 'NONE',  ( 0.000000000000000000, 0.000000000000000000, 3.200000000000008171 ) ) ;
#239 = DIRECTION ( 'NONE',  ( 1.224646799147353207E-16, 1.000000000000000000, -0.000000000000000000 ) ) ;
#240 = CYLINDRICAL_SURFACE ( 'NONE', #141, 2.100000000000000089 ) ;
#241 = EDGE_CURVE ( 'NONE', #296, #194, #94, .T. ) ;
#242 = EDGE_LOOP ( 'NONE', ( #123, #60, #108, #148 ) ) ;
#243 = FACE_OUTER_BOUND ( 'NONE', #242, .T. ) ;
#244 = CARTESIAN_POINT ( 'NONE',  ( 0.000000000000000000, 0.000000000000000000, 3.000000000000000000 ) ) ;
#245 = DIRECTION ( 'NONE',  ( 1.000000000000000000, 0.000000000000000000, 0.000000000000000000 ) ) ;
#246 = CARTESIAN_POINT ( 'NONE',  ( 2.100000000000000089, 2.571758278209441957E-16, 163.0000000000000000 ) ) ;
#247 = CC_DESIGN_PERSON_AND_ORGANIZATION_ASSIGNMENT ( #144, #188, ( #281 ) ) ;
#248 = DATE_AND_TIME ( #74, #287 ) ;
#249 = AXIS2_PLACEMENT_3D ( 'NONE', #87, #297, #18 ) ;
#250 = APPROVAL_DATE_TIME ( #98, #100 ) ;
#251 = CC_DESIGN_PERSON_AND_ORGANIZATION_ASSIGNMENT ( #303, #252, ( #54 ) ) ;
#252 = PERSON_AND_ORGANIZATION_ROLE ( 'creator' ) ;
#253 = LOCAL_TIME ( 12, 24, 27.00000000000000000, #304 ) ;
#254 = CALENDAR_DATE ( 2022, 7, 7 ) ;
#255 = EDGE_CURVE ( 'NONE', #103, #199, #161, .T. ) ;
#256 = VERTEX_POINT ( 'NONE', #73 ) ;
#257 = VERTEX_POINT ( 'NONE', #300 ) ;
#258 = AXIS2_PLACEMENT_3D ( 'NONE', #263, #219, #131 ) ;
#259 = ORIENTED_EDGE ( 'NONE', *, *, #172, .T. ) ;
#260 = EDGE_CURVE ( 'NONE', #194, #296, #215, .T. ) ;
#261 = EDGE_LOOP ( 'NONE', ( #1, #86 ) ) ;
#262 = CARTESIAN_POINT ( 'NONE',  ( -4.000000000000000000, 0.000000000000000000, 0.000000000000000000 ) ) ;
#263 = CARTESIAN_POINT ( 'NONE',  ( 0.000000000000000000, 0.000000000000000000, 0.000000000000000000 ) ) ;
#264 = EDGE_CURVE ( 'NONE', #296, #159, #225, .T. ) ;
#265 = DIRECTION ( 'NONE',  ( 1.000000000000000000, 0.000000000000000000, 0.000000000000000000 ) ) ;
#266 = ORIENTED_EDGE ( 'NONE', *, *, #185, .T. ) ;
#267 = DIRECTION ( 'NONE',  ( 1.000000000000000000, 0.000000000000000000, 0.000000000000000000 ) ) ;
#268 = ORIENTED_EDGE ( 'NONE', *, *, #114, .F. ) ;
#269 = AXIS2_PLACEMENT_3D ( 'NONE', #91, #42, #136 ) ;
#270 = CARTESIAN_POINT ( 'NONE',  ( 0.000000000000000000, 0.000000000000000000, 0.000000000000000000 ) ) ;
#271 = ORIENTED_EDGE ( 'NONE', *, *, #116, .T. ) ;
#272 = DIRECTION ( 'NONE',  ( -0.000000000000000000, -0.000000000000000000, -1.000000000000000000 ) ) ;
#273 = ADVANCED_FACE ( 'NONE', ( #164 ), #105, .T. ) ;
#274 = CIRCLE ( 'NONE', #68, 2.100000000000000089 ) ;
#275 = UNCERTAINTY_MEASURE_WITH_UNIT (LENGTH_MEASURE( 1.000000000000000082E-05 ), #160, 'distance_accuracy_value', 'NONE');
#276 = EDGE_CURVE ( 'NONE', #235, #159, #25, .T. ) ;
#277 = DATE_AND_TIME ( #146, #253 ) ;
#278 = PERSON_AND_ORGANIZATION ( #299, #150 ) ;
#279 = SECURITY_CLASSIFICATION_LEVEL ( 'unclassified' ) ;
#280 = VECTOR ( 'NONE', #156, 1000.000000000000000 ) ;
#281 = PRODUCT_DEFINITION_FORMATION_WITH_SPECIFIED_SOURCE ( 'LIBOVOLNÝ', '', #49, .NOT_KNOWN. ) ;
#282 = ORIENTED_EDGE ( 'NONE', *, *, #67, .F. ) ;
#283 = ORIENTED_EDGE ( 'NONE', *, *, #241, .F. ) ;
#284 = AXIS2_PLACEMENT_3D ( 'NONE', #62, #239, #177 ) ;
#285 = EDGE_LOOP ( 'NONE', ( #31, #65, #27, #182 ) ) ;
#286 = AXIS2_PLACEMENT_3D ( 'NONE', #244, #272, #10 ) ;
#287 = LOCAL_TIME ( 12, 24, 27.00000000000000000, #99 ) ;
#288 = DIRECTION ( 'NONE',  ( 0.000000000000000000, 0.000000000000000000, 1.000000000000000000 ) ) ;
#289 = CC_DESIGN_DATE_AND_TIME_ASSIGNMENT ( #55, #231, ( #191 ) ) ;
#290 = ORIENTED_EDGE ( 'NONE', *, *, #61, .T. ) ;
#291 = DIRECTION ( 'NONE',  ( 0.000000000000000000, 0.000000000000000000, 1.000000000000000000 ) ) ;
#292 = CARTESIAN_POINT ( 'NONE',  ( 0.000000000000000000, 0.000000000000000000, 3.000000000000000000 ) ) ;
#293 = DIRECTION ( 'NONE',  ( -1.000000000000000000, 0.000000000000000000, 0.000000000000000000 ) ) ;
#294 = DIRECTION ( 'NONE',  ( -0.000000000000000000, -0.000000000000000000, -1.000000000000000000 ) ) ;
#295 = CYLINDRICAL_SURFACE ( 'NONE', #286, 4.000000000000000000 ) ;
#296 = VERTEX_POINT ( 'NONE', #166 ) ;
#297 = DIRECTION ( 'NONE',  ( 0.000000000000000000, 0.000000000000000000, 1.000000000000000000 ) ) ;
#298 = TOROIDAL_SURFACE ( 'NONE', #80, 2.300000000000000266, 0.2000000000000000111 ) ;
#299 = PERSON ( 'NEURÈENÝ', 'NEURÈENÝ', 'NEURÈENÝ', ('NEURÈENÝ'), ('NEURÈENÝ'), ('NEURÈENÝ') ) ;
#300 = CARTESIAN_POINT ( 'NONE',  ( 2.300000000000000266, 0.000000000000000000, 3.000000000000004441 ) ) ;
#301 = AXIS2_PLACEMENT_3D ( 'NONE', #6, #288, #111 ) ;
#302 = APPROVAL_ROLE ( '' ) ;
#303 = PERSON_AND_ORGANIZATION ( #299, #150 ) ;
#304 = COORDINATED_UNIVERSAL_TIME_OFFSET ( 1, 0, .AHEAD. ) ;
#305 = EDGE_CURVE ( 'NONE', #194, #235, #36, .T. ) ;
#306 = APPLICATION_CONTEXT ( 'configuration controlled 3d designs of mechanical parts and assemblies' ) ;
#307 = CC_DESIGN_APPROVAL ( #100, ( #281 ) ) ;
ENDSEC;
END-ISO-10303-21;
