ISO-10303-21;
HEADER;
FILE_DESCRIPTION (( 'STEP AP203' ),
    '1' );
FILE_NAME ('286e.STEP',
    '2022-07-07T09:49:14',
    ( '' ),
    ( '' ),
    'SwSTEP 2.0',
    'SolidWorks 2019',
    '' );
FILE_SCHEMA (( 'CONFIG_CONTROL_DESIGN' ));
ENDSEC;

DATA;
#1 = VECTOR ( 'NONE', #243, 1000.000000000000000 ) ;
#2 = CALENDAR_DATE ( 2022, 7, 7 ) ;
#3 = DATE_TIME_ROLE ( 'classification_date' ) ;
#4 = ORIENTED_EDGE ( 'NONE', *, *, #9, .F. ) ;
#5 = VERTEX_POINT ( 'NONE', #137 ) ;
#6 = LOCAL_TIME ( 11, 49, 14.00000000000000000, #235 ) ;
#7 = ORIENTED_EDGE ( 'NONE', *, *, #257, .T. ) ;
#8 = ORIENTED_EDGE ( 'NONE', *, *, #300, .T. ) ;
#9 = EDGE_CURVE ( 'NONE', #30, #158, #280, .T. ) ;
#10 = ORIENTED_EDGE ( 'NONE', *, *, #17, .F. ) ;
#11 = DIRECTION ( 'NONE',  ( -0.000000000000000000, -0.000000000000000000, -1.000000000000000000 ) ) ;
#12 = AXIS2_PLACEMENT_3D ( 'NONE', #72, #121, #264 ) ;
#13 = PERSON_AND_ORGANIZATION_ROLE ( 'creator' ) ;
#14 = DIRECTION ( 'NONE',  ( 1.224646799147353207E-16, 1.000000000000000000, -0.000000000000000000 ) ) ;
#15 = CARTESIAN_POINT ( 'NONE',  ( 0.000000000000000000, 0.000000000000000000, 5.000000000000000000 ) ) ;
#16 = CARTESIAN_POINT ( 'NONE',  ( 0.000000000000000000, 0.000000000000000000, 5.200000000000009948 ) ) ;
#17 = EDGE_CURVE ( 'NONE', #32, #33, #135, .T. ) ;
#18 = APPROVAL_DATE_TIME ( #233, #219 ) ;
#19 = ORIENTED_EDGE ( 'NONE', *, *, #45, .T. ) ;
#20 = AXIS2_PLACEMENT_3D ( 'NONE', #26, #197, #52 ) ;
#21 = APPLICATION_PROTOCOL_DEFINITION ( 'international standard', 'config_control_design', 1994, #183 ) ;
#22 = ADVANCED_FACE ( 'NONE', ( #111 ), #207, .T. ) ;
#23 = FACE_OUTER_BOUND ( 'NONE', #224, .T. ) ;
#24 = AXIS2_PLACEMENT_3D ( 'NONE', #25, #99, #260 ) ;
#25 = CARTESIAN_POINT ( 'NONE',  ( 0.000000000000000000, 0.000000000000000000, 0.000000000000000000 ) ) ;
#26 = CARTESIAN_POINT ( 'NONE',  ( 0.000000000000000000, 0.000000000000000000, 5.000000000000000000 ) ) ;
#27 = CC_DESIGN_PERSON_AND_ORGANIZATION_ASSIGNMENT ( #102, #201, ( #245 ) ) ;
#28 = DIRECTION ( 'NONE',  ( 0.000000000000000000, 0.000000000000000000, 1.000000000000000000 ) ) ;
#29 = LOCAL_TIME ( 11, 49, 14.00000000000000000, #110 ) ;
#30 = VERTEX_POINT ( 'NONE', #138 ) ;
#31 = APPROVAL ( #306, 'NEURÈENÝ' ) ;
#32 = VERTEX_POINT ( 'NONE', #277 ) ;
#33 = VERTEX_POINT ( 'NONE', #234 ) ;
#34 = AXIS2_PLACEMENT_3D ( 'NONE', #16, #100, #50 ) ;
#35 = ORIENTED_EDGE ( 'NONE', *, *, #17, .T. ) ;
#36 = DIRECTION ( 'NONE',  ( 1.000000000000000000, 0.000000000000000000, 0.000000000000000000 ) ) ;
#37 = APPROVAL_DATE_TIME ( #189, #95 ) ;
#38 = ORIENTED_EDGE ( 'NONE', *, *, #199, .F. ) ;
#39 = AXIS2_PLACEMENT_3D ( 'NONE', #91, #146, #168 ) ;
#40 = ORIENTED_EDGE ( 'NONE', *, *, #98, .F. ) ;
#41 = PRODUCT_DEFINITION_SHAPE ( 'NONE', 'NONE',  #244 ) ;
#42 = APPROVAL_ROLE ( '' ) ;
#43 = DIRECTION ( 'NONE',  ( -0.000000000000000000, -0.000000000000000000, -1.000000000000000000 ) ) ;
#44 = AXIS2_PLACEMENT_3D ( 'NONE', #211, #226, #94 ) ;
#45 = EDGE_CURVE ( 'NONE', #33, #32, #148, .T. ) ;
#46 = CARTESIAN_POINT ( 'NONE',  ( 0.000000000000000000, 0.000000000000000000, 0.000000000000000000 ) ) ;
#47 = DIRECTION ( 'NONE',  ( -0.000000000000000000, -0.000000000000000000, -1.000000000000000000 ) ) ;
#48 = CARTESIAN_POINT ( 'NONE',  ( -5.699999999999999289, 6.980486755139912122E-16, 5.000000000000005329 ) ) ;
#49 = SECURITY_CLASSIFICATION ( '', '', #198 ) ;
#50 = DIRECTION ( 'NONE',  ( 1.000000000000000000, 0.000000000000000000, 0.000000000000000000 ) ) ;
#51 = EDGE_CURVE ( 'NONE', #180, #158, #144, .T. ) ;
#52 = DIRECTION ( 'NONE',  ( 1.000000000000000000, 0.000000000000000000, 0.000000000000000000 ) ) ;
#53 = DATE_AND_TIME ( #2, #263 ) ;
#54 = AXIS2_PLACEMENT_3D ( 'NONE', #15, #297, #90 ) ;
#55 = CALENDAR_DATE ( 2022, 7, 7 ) ;
#56 = ORIENTED_EDGE ( 'NONE', *, *, #225, .T. ) ;
#57 = ORIENTED_EDGE ( 'NONE', *, *, #9, .T. ) ;
#58 = ADVANCED_FACE ( 'NONE', ( #133 ), #164, .T. ) ;
#59 = ORIENTED_EDGE ( 'NONE', *, *, #142, .F. ) ;
#60 = DIRECTION ( 'NONE',  ( -1.000000000000000000, 1.224646799147353454E-16, 0.000000000000000000 ) ) ;
#61 = DESIGN_CONTEXT ( 'detailed design', #75, 'design' ) ;
#62 = FACE_BOUND ( 'NONE', #292, .T. ) ;
#63 = EDGE_LOOP ( 'NONE', ( #249, #7, #56, #302 ) ) ;
#64 = AXIS2_PLACEMENT_3D ( 'NONE', #274, #14, #60 ) ;
#65 = PERSON_AND_ORGANIZATION ( #240, #275 ) ;
#66 = ORIENTED_EDGE ( 'NONE', *, *, #73, .T. ) ;
#67 = DIRECTION ( 'NONE',  ( 1.000000000000000000, 0.000000000000000000, -0.000000000000000000 ) ) ;
#68 = EDGE_CURVE ( 'NONE', #202, #30, #70, .T. ) ;
#69 = MECHANICAL_CONTEXT ( 'NONE', #183, 'mechanical' ) ;
#70 = CIRCLE ( 'NONE', #44, 5.500000000000000000 ) ;
#71 = DIRECTION ( 'NONE',  ( -0.000000000000000000, -0.000000000000000000, -1.000000000000000000 ) ) ;
#72 = CARTESIAN_POINT ( 'NONE',  ( 0.000000000000000000, 0.000000000000000000, 5.200000000000009948 ) ) ;
#73 = EDGE_CURVE ( 'NONE', #5, #178, #247, .T. ) ;
#74 = CARTESIAN_POINT ( 'NONE',  ( 5.500000000000000000, 6.735557395310442023E-16, 5.200000000000009948 ) ) ;
#75 = APPLICATION_CONTEXT ( 'configuration controlled 3d designs of mechanical parts and assemblies' ) ;
#76 = COORDINATED_UNIVERSAL_TIME_OFFSET ( 1, 0, .AHEAD. ) ;
#77 = CC_DESIGN_APPROVAL ( #219, ( #245 ) ) ;
#78 = PLANE ( 'NONE',  #24 ) ;
#79 = PERSON_AND_ORGANIZATION ( #240, #275 ) ;
#80 = AXIS2_PLACEMENT_3D ( 'NONE', #46, #208, #160 ) ;
#81 = ORIENTED_EDGE ( 'NONE', *, *, #132, .F. ) ;
#82 = ORIENTED_EDGE ( 'NONE', *, *, #142, .T. ) ;
#83 = EDGE_CURVE ( 'NONE', #178, #269, #182, .T. ) ;
#84 = VECTOR ( 'NONE', #11, 1000.000000000000000 ) ;
#85 = DIRECTION ( 'NONE',  ( 1.000000000000000000, 0.000000000000000000, 0.000000000000000000 ) ) ;
#86 = CARTESIAN_POINT ( 'NONE',  ( 0.000000000000000000, 0.000000000000000000, 5.200000000000009948 ) ) ;
#87 = ADVANCED_FACE ( 'NONE', ( #109 ), #153, .F. ) ;
#88 = DIRECTION ( 'NONE',  ( 0.000000000000000000, 0.000000000000000000, 1.000000000000000000 ) ) ;
#89 = DIRECTION ( 'NONE',  ( -0.000000000000000000, -0.000000000000000000, -1.000000000000000000 ) ) ;
#90 = DIRECTION ( 'NONE',  ( 1.000000000000000000, 0.000000000000000000, 0.000000000000000000 ) ) ;
#91 = CARTESIAN_POINT ( 'NONE',  ( 5.699999999999999289, 0.000000000000000000, 5.200000000000009948 ) ) ;
#92 = LOCAL_TIME ( 11, 49, 14.00000000000000000, #76 ) ;
#93 =( NAMED_UNIT ( * ) PLANE_ANGLE_UNIT ( ) SI_UNIT ( $, .RADIAN. ) );
#94 = DIRECTION ( 'NONE',  ( 1.000000000000000000, 0.000000000000000000, 0.000000000000000000 ) ) ;
#95 = APPROVAL ( #258, 'NEURÈENÝ' ) ;
#96 = CIRCLE ( 'NONE', #34, 5.500000000000000000 ) ;
#97 = CARTESIAN_POINT ( 'NONE',  ( 0.000000000000000000, 0.000000000000000000, 165.0000000000000000 ) ) ;
#98 = EDGE_CURVE ( 'NONE', #178, #5, #161, .T. ) ;
#99 = DIRECTION ( 'NONE',  ( 0.000000000000000000, 0.000000000000000000, 1.000000000000000000 ) ) ;
#100 = DIRECTION ( 'NONE',  ( 0.000000000000000000, 0.000000000000000000, 1.000000000000000000 ) ) ;
#101 = PERSON_AND_ORGANIZATION ( #240, #275 ) ;
#102 = PERSON_AND_ORGANIZATION ( #240, #275 ) ;
#103 = CIRCLE ( 'NONE', #287, 8.000000000000000000 ) ;
#104 = CC_DESIGN_PERSON_AND_ORGANIZATION_ASSIGNMENT ( #165, #252, ( #229 ) ) ;
#105 = EDGE_LOOP ( 'NONE', ( #129, #40, #272, #8 ) ) ;
#106 = CARTESIAN_POINT ( 'NONE',  ( 0.000000000000000000, 0.000000000000000000, 5.000000000000000000 ) ) ;
#107 = AXIS2_PLACEMENT_3D ( 'NONE', #141, #231, #36 ) ;
#108 = ADVANCED_FACE ( 'NONE', ( #122 ), #304, .T. ) ;
#109 = FACE_OUTER_BOUND ( 'NONE', #248, .T. ) ;
#110 = COORDINATED_UNIVERSAL_TIME_OFFSET ( 1, 0, .AHEAD. ) ;
#111 = FACE_OUTER_BOUND ( 'NONE', #105, .T. ) ;
#112 = CARTESIAN_POINT ( 'NONE',  ( 0.000000000000000000, 0.000000000000000000, 0.000000000000000000 ) ) ;
#113 = EDGE_LOOP ( 'NONE', ( #267, #82, #246, #177 ) ) ;
#114 = LINE ( 'NONE', #210, #124 ) ;
#115 = DIRECTION ( 'NONE',  ( -1.000000000000000000, 0.000000000000000000, 0.000000000000000000 ) ) ;
#116 = AXIS2_PLACEMENT_3D ( 'NONE', #97, #236, #196 ) ;
#117 = ADVANCED_FACE ( 'NONE', ( #284 ), #194, .T. ) ;
#118 = MANIFOLD_SOLID_BREP ( 'Zaoblit1', #179 ) ;
#119 = DIRECTION ( 'NONE',  ( -0.000000000000000000, -0.000000000000000000, -1.000000000000000000 ) ) ;
#120 = CC_DESIGN_PERSON_AND_ORGANIZATION_ASSIGNMENT ( #65, #13, ( #244 ) ) ;
#121 = DIRECTION ( 'NONE',  ( 0.000000000000000000, 0.000000000000000000, 1.000000000000000000 ) ) ;
#122 = FACE_OUTER_BOUND ( 'NONE', #63, .T. ) ;
#123 = FACE_OUTER_BOUND ( 'NONE', #266, .T. ) ;
#124 = VECTOR ( 'NONE', #47, 1000.000000000000000 ) ;
#125 = PERSON_AND_ORGANIZATION ( #240, #275 ) ;
#126 = ORIENTED_EDGE ( 'NONE', *, *, #172, .F. ) ;
#127 = ORIENTED_EDGE ( 'NONE', *, *, #98, .T. ) ;
#128 = ADVANCED_FACE ( 'NONE', ( #286 ), #281, .F. ) ;
#129 = ORIENTED_EDGE ( 'NONE', *, *, #257, .F. ) ;
#130 = LOCAL_TIME ( 11, 49, 14.00000000000000000, #230 ) ;
#131 = ORIENTED_EDGE ( 'NONE', *, *, #172, .T. ) ;
#132 = EDGE_CURVE ( 'NONE', #202, #180, #270, .T. ) ;
#133 = FACE_OUTER_BOUND ( 'NONE', #251, .T. ) ;
#134 = APPLICATION_PROTOCOL_DEFINITION ( 'international standard', 'config_control_design', 1994, #75 ) ;
#135 = CIRCLE ( 'NONE', #238, 5.500000000000000000 ) ;
#136 = AXIS2_PLACEMENT_3D ( 'NONE', #216, #171, #298 ) ;
#137 = CARTESIAN_POINT ( 'NONE',  ( 8.000000000000000000, 9.797174393178825657E-16, 5.000000000000000000 ) ) ;
#138 = CARTESIAN_POINT ( 'NONE',  ( -5.500000000000000000, 0.000000000000000000, 5.200000000000009948 ) ) ;
#139 = CARTESIAN_POINT ( 'NONE',  ( -8.000000000000000000, 0.000000000000000000, 5.000000000000000000 ) ) ;
#140 = CALENDAR_DATE ( 2022, 7, 7 ) ;
#141 = CARTESIAN_POINT ( 'NONE',  ( 0.000000000000000000, 0.000000000000000000, 165.0000000000000000 ) ) ;
#142 = EDGE_CURVE ( 'NONE', #33, #202, #283, .T. ) ;
#143 = PERSON_AND_ORGANIZATION ( #240, #275 ) ;
#144 = CIRCLE ( 'NONE', #54, 5.699999999999999289 ) ;
#145 = EDGE_CURVE ( 'NONE', #32, #30, #307, .T. ) ;
#146 = DIRECTION ( 'NONE',  ( 0.000000000000000000, -1.000000000000000000, 0.000000000000000000 ) ) ;
#147 = PLANE ( 'NONE',  #227 ) ;
#148 = CIRCLE ( 'NONE', #107, 5.500000000000000000 ) ;
#149 = APPROVAL_PERSON_ORGANIZATION ( #143, #95, #192 ) ;
#150 = CARTESIAN_POINT ( 'NONE',  ( 0.000000000000000000, 0.000000000000000000, 0.000000000000000000 ) ) ;
#151 = CARTESIAN_POINT ( 'NONE',  ( 5.500000000000000000, 6.735557395310442023E-16, 165.0000000000000000 ) ) ;
#152 = PRODUCT_RELATED_PRODUCT_CATEGORY ( 'detail', '', ( #229 ) ) ;
#153 = TOROIDAL_SURFACE ( 'NONE', #259, 5.699999999999999289, 0.2000000000000000111 ) ;
#154 = COORDINATED_UNIVERSAL_TIME_OFFSET ( 1, 0, .AHEAD. ) ;
#155 = VERTEX_POINT ( 'NONE', #214 ) ;
#156 = EDGE_LOOP ( 'NONE', ( #127, #66 ) ) ;
#157 = APPROVAL_PERSON_ORGANIZATION ( #79, #31, #170 ) ;
#158 = VERTEX_POINT ( 'NONE', #48 ) ;
#159 = DIRECTION ( 'NONE',  ( 1.000000000000000000, 0.000000000000000000, 0.000000000000000000 ) ) ;
#160 = DIRECTION ( 'NONE',  ( 1.000000000000000000, 0.000000000000000000, 0.000000000000000000 ) ) ;
#161 = CIRCLE ( 'NONE', #20, 8.000000000000000000 ) ;
#162 = ORIENTED_EDGE ( 'NONE', *, *, #68, .F. ) ;
#163 = ADVANCED_FACE ( 'NONE', ( #23 ), #147, .T. ) ;
#164 = CYLINDRICAL_SURFACE ( 'NONE', #289, 5.500000000000000000 ) ;
#165 = PERSON_AND_ORGANIZATION ( #240, #275 ) ;
#166 = AXIS2_PLACEMENT_3D ( 'NONE', #301, #278, #67 ) ;
#167 = CARTESIAN_POINT ( 'NONE',  ( 0.000000000000000000, 0.000000000000000000, 5.000000000000000000 ) ) ;
#168 = DIRECTION ( 'NONE',  ( 0.000000000000000000, 0.000000000000000000, -1.000000000000000000 ) ) ;
#169 = CC_DESIGN_SECURITY_CLASSIFICATION ( #49, ( #245 ) ) ;
#170 = APPROVAL_ROLE ( '' ) ;
#171 = DIRECTION ( 'NONE',  ( -0.000000000000000000, -0.000000000000000000, -1.000000000000000000 ) ) ;
#172 = EDGE_CURVE ( 'NONE', #158, #180, #181, .T. ) ;
#173 = SHAPE_DEFINITION_REPRESENTATION ( #41, #188 ) ;
#174 =( GEOMETRIC_REPRESENTATION_CONTEXT ( 3 ) GLOBAL_UNCERTAINTY_ASSIGNED_CONTEXT ( ( #185 ) ) GLOBAL_UNIT_ASSIGNED_CONTEXT ( ( #186, #93, #295 ) ) REPRESENTATION_CONTEXT ( 'NONE', 'WORKASPACE' ) );
#175 = ADVANCED_FACE ( 'NONE', ( #123 ), #78, .F. ) ;
#176 = ORIENTED_EDGE ( 'NONE', *, *, #145, .T. ) ;
#177 = ORIENTED_EDGE ( 'NONE', *, *, #145, .F. ) ;
#178 = VERTEX_POINT ( 'NONE', #139 ) ;
#179 = CLOSED_SHELL ( 'NONE', ( #87, #117, #108, #22, #291, #175, #58, #163, #128 ) ) ;
#180 = VERTEX_POINT ( 'NONE', #232 ) ;
#181 = CIRCLE ( 'NONE', #213, 5.699999999999999289 ) ;
#182 = LINE ( 'NONE', #271, #84 ) ;
#183 = APPLICATION_CONTEXT ( 'configuration controlled 3d designs of mechanical parts and assemblies' ) ;
#184 = ORIENTED_EDGE ( 'NONE', *, *, #199, .T. ) ;
#185 = UNCERTAINTY_MEASURE_WITH_UNIT (LENGTH_MEASURE( 1.000000000000000082E-05 ), #186, 'distance_accuracy_value', 'NONE');
#186 =( LENGTH_UNIT ( ) NAMED_UNIT ( * ) SI_UNIT ( .MILLI., .METRE. ) );
#187 = DIRECTION ( 'NONE',  ( -1.000000000000000000, 0.000000000000000000, 0.000000000000000000 ) ) ;
#188 = ADVANCED_BREP_SHAPE_REPRESENTATION ( '286e', ( #118, #239 ), #174 ) ;
#189 = DATE_AND_TIME ( #250, #6 ) ;
#190 = CC_DESIGN_APPROVAL ( #95, ( #244 ) ) ;
#191 = DIRECTION ( 'NONE',  ( 0.000000000000000000, 0.000000000000000000, 1.000000000000000000 ) ) ;
#192 = APPROVAL_ROLE ( '' ) ;
#193 = CALENDAR_DATE ( 2022, 7, 7 ) ;
#194 = CYLINDRICAL_SURFACE ( 'NONE', #116, 5.500000000000000000 ) ;
#195 = VECTOR ( 'NONE', #71, 1000.000000000000000 ) ;
#196 = DIRECTION ( 'NONE',  ( -1.000000000000000000, 0.000000000000000000, 0.000000000000000000 ) ) ;
#197 = DIRECTION ( 'NONE',  ( 0.000000000000000000, 0.000000000000000000, 1.000000000000000000 ) ) ;
#198 = SECURITY_CLASSIFICATION_LEVEL ( 'unclassified' ) ;
#199 = EDGE_CURVE ( 'NONE', #30, #202, #96, .T. ) ;
#200 = DIRECTION ( 'NONE',  ( 1.000000000000000000, 0.000000000000000000, 0.000000000000000000 ) ) ;
#201 = PERSON_AND_ORGANIZATION_ROLE ( 'design_supplier' ) ;
#202 = VERTEX_POINT ( 'NONE', #74 ) ;
#203 = CC_DESIGN_PERSON_AND_ORGANIZATION_ASSIGNMENT ( #101, #217, ( #245 ) ) ;
#204 = DIRECTION ( 'NONE',  ( 0.000000000000000000, 0.000000000000000000, 1.000000000000000000 ) ) ;
#205 = APPROVAL_PERSON_ORGANIZATION ( #254, #219, #42 ) ;
#206 = DATE_TIME_ROLE ( 'creation_date' ) ;
#207 = CYLINDRICAL_SURFACE ( 'NONE', #223, 8.000000000000000000 ) ;
#208 = DIRECTION ( 'NONE',  ( 0.000000000000000000, 0.000000000000000000, 1.000000000000000000 ) ) ;
#209 = ORIENTED_EDGE ( 'NONE', *, *, #132, .T. ) ;
#210 = CARTESIAN_POINT ( 'NONE',  ( 8.000000000000000000, 9.797174393178825657E-16, 5.000000000000000000 ) ) ;
#211 = CARTESIAN_POINT ( 'NONE',  ( 0.000000000000000000, 0.000000000000000000, 5.200000000000009948 ) ) ;
#212 = DIRECTION ( 'NONE',  ( 1.000000000000000000, 0.000000000000000000, 0.000000000000000000 ) ) ;
#213 = AXIS2_PLACEMENT_3D ( 'NONE', #167, #119, #262 ) ;
#214 = CARTESIAN_POINT ( 'NONE',  ( 8.000000000000000000, 9.797174393178825657E-16, 0.000000000000000000 ) ) ;
#215 = CC_DESIGN_DATE_AND_TIME_ASSIGNMENT ( #242, #3, ( #49 ) ) ;
#216 = CARTESIAN_POINT ( 'NONE',  ( 0.000000000000000000, 0.000000000000000000, 5.000000000000000000 ) ) ;
#217 = PERSON_AND_ORGANIZATION_ROLE ( 'creator' ) ;
#218 = AXIS2_PLACEMENT_3D ( 'NONE', #106, #204, #85 ) ;
#219 = APPROVAL ( #273, 'NEURÈENÝ' ) ;
#220 = APPROVAL_DATE_TIME ( #53, #31 ) ;
#221 = ORIENTED_EDGE ( 'NONE', *, *, #300, .F. ) ;
#222 = ORIENTED_EDGE ( 'NONE', *, *, #51, .F. ) ;
#223 = AXIS2_PLACEMENT_3D ( 'NONE', #296, #89, #187 ) ;
#224 = EDGE_LOOP ( 'NONE', ( #35, #19 ) ) ;
#225 = EDGE_CURVE ( 'NONE', #155, #269, #103, .T. ) ;
#226 = DIRECTION ( 'NONE',  ( 0.000000000000000000, 0.000000000000000000, 1.000000000000000000 ) ) ;
#227 = AXIS2_PLACEMENT_3D ( 'NONE', #305, #28, #237 ) ;
#228 = ORIENTED_EDGE ( 'NONE', *, *, #225, .F. ) ;
#229 = PRODUCT ( '286e', '286e', '', ( #69 ) ) ;
#230 = COORDINATED_UNIVERSAL_TIME_OFFSET ( 1, 0, .AHEAD. ) ;
#231 = DIRECTION ( 'NONE',  ( 0.000000000000000000, 0.000000000000000000, 1.000000000000000000 ) ) ;
#232 = CARTESIAN_POINT ( 'NONE',  ( 5.699999999999999289, 0.000000000000000000, 5.000000000000005329 ) ) ;
#233 = DATE_AND_TIME ( #140, #130 ) ;
#234 = CARTESIAN_POINT ( 'NONE',  ( 5.500000000000000000, 6.735557395310442023E-16, 165.0000000000000000 ) ) ;
#235 = COORDINATED_UNIVERSAL_TIME_OFFSET ( 1, 0, .AHEAD. ) ;
#236 = DIRECTION ( 'NONE',  ( -0.000000000000000000, -0.000000000000000000, -1.000000000000000000 ) ) ;
#237 = DIRECTION ( 'NONE',  ( 1.000000000000000000, 0.000000000000000000, -0.000000000000000000 ) ) ;
#238 = AXIS2_PLACEMENT_3D ( 'NONE', #253, #191, #159 ) ;
#239 = AXIS2_PLACEMENT_3D ( 'NONE', #112, #88, #303 ) ;
#240 = PERSON ( 'NEURÈENÝ', 'NEURÈENÝ', 'NEURÈENÝ', ('NEURÈENÝ'), ('NEURÈENÝ'), ('NEURÈENÝ') ) ;
#241 = DIRECTION ( 'NONE',  ( 0.000000000000000000, 0.000000000000000000, 1.000000000000000000 ) ) ;
#242 = DATE_AND_TIME ( #55, #92 ) ;
#243 = DIRECTION ( 'NONE',  ( -0.000000000000000000, -0.000000000000000000, -1.000000000000000000 ) ) ;
#244 = PRODUCT_DEFINITION ( 'NEZNÁMÝ', '', #245, #61 ) ;
#245 = PRODUCT_DEFINITION_FORMATION_WITH_SPECIFIED_SOURCE ( 'LIBOVOLNÝ', '', #229, .NOT_KNOWN. ) ;
#246 = ORIENTED_EDGE ( 'NONE', *, *, #68, .T. ) ;
#247 = CIRCLE ( 'NONE', #218, 8.000000000000000000 ) ;
#248 = EDGE_LOOP ( 'NONE', ( #38, #57, #222, #81 ) ) ;
#249 = ORIENTED_EDGE ( 'NONE', *, *, #73, .F. ) ;
#250 = CALENDAR_DATE ( 2022, 7, 7 ) ;
#251 = EDGE_LOOP ( 'NONE', ( #59, #10, #176, #184 ) ) ;
#252 = PERSON_AND_ORGANIZATION_ROLE ( 'design_owner' ) ;
#253 = CARTESIAN_POINT ( 'NONE',  ( 0.000000000000000000, 0.000000000000000000, 165.0000000000000000 ) ) ;
#254 = PERSON_AND_ORGANIZATION ( #240, #275 ) ;
#255 = CARTESIAN_POINT ( 'NONE',  ( 0.000000000000000000, 0.000000000000000000, 165.0000000000000000 ) ) ;
#256 = PLANE ( 'NONE',  #166 ) ;
#257 = EDGE_CURVE ( 'NONE', #5, #155, #114, .T. ) ;
#258 = APPROVAL_STATUS ( 'not_yet_approved' ) ;
#259 = AXIS2_PLACEMENT_3D ( 'NONE', #86, #282, #212 ) ;
#260 = DIRECTION ( 'NONE',  ( 1.000000000000000000, 0.000000000000000000, -0.000000000000000000 ) ) ;
#261 = CARTESIAN_POINT ( 'NONE',  ( -5.500000000000000000, 0.000000000000000000, 165.0000000000000000 ) ) ;
#262 = DIRECTION ( 'NONE',  ( 1.000000000000000000, 0.000000000000000000, 0.000000000000000000 ) ) ;
#263 = LOCAL_TIME ( 11, 49, 14.00000000000000000, #154 ) ;
#264 = DIRECTION ( 'NONE',  ( 1.000000000000000000, 0.000000000000000000, 0.000000000000000000 ) ) ;
#265 = CC_DESIGN_PERSON_AND_ORGANIZATION_ASSIGNMENT ( #125, #285, ( #49 ) ) ;
#266 = EDGE_LOOP ( 'NONE', ( #221, #228 ) ) ;
#267 = ORIENTED_EDGE ( 'NONE', *, *, #45, .F. ) ;
#268 = CC_DESIGN_DATE_AND_TIME_ASSIGNMENT ( #276, #206, ( #244 ) ) ;
#269 = VERTEX_POINT ( 'NONE', #294 ) ;
#270 = CIRCLE ( 'NONE', #39, 0.1999999999999996503 ) ;
#271 = CARTESIAN_POINT ( 'NONE',  ( -8.000000000000000000, 0.000000000000000000, 5.000000000000000000 ) ) ;
#272 = ORIENTED_EDGE ( 'NONE', *, *, #83, .T. ) ;
#273 = APPROVAL_STATUS ( 'not_yet_approved' ) ;
#274 = CARTESIAN_POINT ( 'NONE',  ( -5.699999999999999289, 6.980486755139912122E-16, 5.200000000000009948 ) ) ;
#275 = ORGANIZATION ( 'NEURÈENÝ', 'NEURÈENÝ', '' ) ;
#276 = DATE_AND_TIME ( #193, #29 ) ;
#277 = CARTESIAN_POINT ( 'NONE',  ( -5.500000000000000000, 0.000000000000000000, 165.0000000000000000 ) ) ;
#278 = DIRECTION ( 'NONE',  ( 0.000000000000000000, 0.000000000000000000, 1.000000000000000000 ) ) ;
#279 = FACE_OUTER_BOUND ( 'NONE', #156, .T. ) ;
#280 = CIRCLE ( 'NONE', #64, 0.1999999999999996503 ) ;
#281 = TOROIDAL_SURFACE ( 'NONE', #12, 5.699999999999999289, 0.2000000000000000111 ) ;
#282 = DIRECTION ( 'NONE',  ( 0.000000000000000000, 0.000000000000000000, 1.000000000000000000 ) ) ;
#283 = LINE ( 'NONE', #151, #195 ) ;
#284 = FACE_OUTER_BOUND ( 'NONE', #113, .T. ) ;
#285 = PERSON_AND_ORGANIZATION_ROLE ( 'classification_officer' ) ;
#286 = FACE_OUTER_BOUND ( 'NONE', #288, .T. ) ;
#287 = AXIS2_PLACEMENT_3D ( 'NONE', #150, #241, #200 ) ;
#288 = EDGE_LOOP ( 'NONE', ( #4, #162, #209, #126 ) ) ;
#289 = AXIS2_PLACEMENT_3D ( 'NONE', #255, #43, #115 ) ;
#290 = ORIENTED_EDGE ( 'NONE', *, *, #51, .T. ) ;
#291 = ADVANCED_FACE ( 'NONE', ( #62, #279 ), #256, .T. ) ;
#292 = EDGE_LOOP ( 'NONE', ( #290, #131 ) ) ;
#293 = CIRCLE ( 'NONE', #80, 8.000000000000000000 ) ;
#294 = CARTESIAN_POINT ( 'NONE',  ( -8.000000000000000000, 0.000000000000000000, 0.000000000000000000 ) ) ;
#295 =( NAMED_UNIT ( * ) SI_UNIT ( $, .STERADIAN. ) SOLID_ANGLE_UNIT ( ) );
#296 = CARTESIAN_POINT ( 'NONE',  ( 0.000000000000000000, 0.000000000000000000, 5.000000000000000000 ) ) ;
#297 = DIRECTION ( 'NONE',  ( -0.000000000000000000, -0.000000000000000000, -1.000000000000000000 ) ) ;
#298 = DIRECTION ( 'NONE',  ( -1.000000000000000000, 0.000000000000000000, 0.000000000000000000 ) ) ;
#299 = CC_DESIGN_APPROVAL ( #31, ( #49 ) ) ;
#300 = EDGE_CURVE ( 'NONE', #269, #155, #293, .T. ) ;
#301 = CARTESIAN_POINT ( 'NONE',  ( 0.000000000000000000, 0.000000000000000000, 5.000000000000000000 ) ) ;
#302 = ORIENTED_EDGE ( 'NONE', *, *, #83, .F. ) ;
#303 = DIRECTION ( 'NONE',  ( 1.000000000000000000, 0.000000000000000000, 0.000000000000000000 ) ) ;
#304 = CYLINDRICAL_SURFACE ( 'NONE', #136, 8.000000000000000000 ) ;
#305 = CARTESIAN_POINT ( 'NONE',  ( 0.000000000000000000, 0.000000000000000000, 165.0000000000000000 ) ) ;
#306 = APPROVAL_STATUS ( 'not_yet_approved' ) ;
#307 = LINE ( 'NONE', #261, #1 ) ;
ENDSEC;
END-ISO-10303-21;
