ISO-10303-21;
HEADER;
FILE_DESCRIPTION (( 'STEP AP203' ),
    '1' );
FILE_NAME ('69cc.STEP',
    '2023-02-12T12:09:43',
    ( '' ),
    ( '' ),
    'SwSTEP 2.0',
    'SolidWorks 2019',
    '' );
FILE_SCHEMA (( 'CONFIG_CONTROL_DESIGN' ));
ENDSEC;

DATA;
#1 = EDGE_CURVE ( 'NONE', #198, #221, #94, .T. ) ;
#2 = ORIENTED_EDGE ( 'NONE', *, *, #174, .F. ) ;
#3 = VECTOR ( 'NONE', #48, 1000.000000000000000 ) ;
#4 = ORIENTED_EDGE ( 'NONE', *, *, #192, .T. ) ;
#5 = AXIS2_PLACEMENT_3D ( 'NONE', #106, #247, #63 ) ;
#6 = EDGE_CURVE ( 'NONE', #221, #198, #240, .T. ) ;
#7 = CARTESIAN_POINT ( 'NONE',  ( 3.100000000000000089, 3.796405077356794918E-16, 5.000000000000000000 ) ) ;
#8 = DATE_AND_TIME ( #248, #74 ) ;
#9 = DIRECTION ( 'NONE',  ( 0.000000000000000000, 0.000000000000000000, 1.000000000000000000 ) ) ;
#10 = ORGANIZATION ( 'NEURÈENÝ', 'NEURÈENÝ', '' ) ;
#11 = DIRECTION ( 'NONE',  ( 0.000000000000000000, 0.000000000000000000, 1.000000000000000000 ) ) ;
#12 = CC_DESIGN_DATE_AND_TIME_ASSIGNMENT ( #228, #46, ( #142 ) ) ;
#13 = DIRECTION ( 'NONE',  ( 0.000000000000000000, 0.000000000000000000, 1.000000000000000000 ) ) ;
#14 = CARTESIAN_POINT ( 'NONE',  ( 0.000000000000000000, 0.000000000000000000, 5.000000000000000000 ) ) ;
#15 = CIRCLE ( 'NONE', #40, 6.000000000000000888 ) ;
#16 = ORIENTED_EDGE ( 'NONE', *, *, #6, .T. ) ;
#17 = VERTEX_POINT ( 'NONE', #73 ) ;
#18 = DIRECTION ( 'NONE',  ( 0.000000000000000000, 0.000000000000000000, 1.000000000000000000 ) ) ;
#19 = VERTEX_POINT ( 'NONE', #177 ) ;
#20 = ORIENTED_EDGE ( 'NONE', *, *, #124, .T. ) ;
#21 = VECTOR ( 'NONE', #85, 1000.000000000000000 ) ;
#22 = ADVANCED_BREP_SHAPE_REPRESENTATION ( '69cc', ( #203, #97 ), #41 ) ;
#23 = CC_DESIGN_PERSON_AND_ORGANIZATION_ASSIGNMENT ( #43, #208, ( #142 ) ) ;
#24 = LOCAL_TIME ( 13, 9, 43.00000000000000000, #107 ) ;
#25 = CARTESIAN_POINT ( 'NONE',  ( -6.000000000000000888, 0.000000000000000000, 5.000000000000000000 ) ) ;
#26 = CARTESIAN_POINT ( 'NONE',  ( 0.000000000000000000, 0.000000000000000000, 0.000000000000000000 ) ) ;
#27 = LINE ( 'NONE', #25, #214 ) ;
#28 =( LENGTH_UNIT ( ) NAMED_UNIT ( * ) SI_UNIT ( .MILLI., .METRE. ) );
#29 = DIRECTION ( 'NONE',  ( -1.000000000000000000, 0.000000000000000000, 0.000000000000000000 ) ) ;
#30 = APPROVAL_STATUS ( 'not_yet_approved' ) ;
#31 = CARTESIAN_POINT ( 'NONE',  ( 0.000000000000000000, 0.000000000000000000, 5.000000000000000000 ) ) ;
#32 = APPLICATION_PROTOCOL_DEFINITION ( 'international standard', 'config_control_design', 1994, #242 ) ;
#33 = EDGE_LOOP ( 'NONE', ( #50, #99 ) ) ;
#34 = DIRECTION ( 'NONE',  ( 0.000000000000000000, 0.000000000000000000, 1.000000000000000000 ) ) ;
#35 = ORIENTED_EDGE ( 'NONE', *, *, #67, .F. ) ;
#36 = VERTEX_POINT ( 'NONE', #119 ) ;
#37 = ORIENTED_EDGE ( 'NONE', *, *, #124, .F. ) ;
#38 = CC_DESIGN_APPROVAL ( #109, ( #179 ) ) ;
#39 = ADVANCED_FACE ( 'NONE', ( #159, #254 ), #158, .T. ) ;
#40 = AXIS2_PLACEMENT_3D ( 'NONE', #61, #130, #186 ) ;
#41 =( GEOMETRIC_REPRESENTATION_CONTEXT ( 3 ) GLOBAL_UNCERTAINTY_ASSIGNED_CONTEXT ( ( #188 ) ) GLOBAL_UNIT_ASSIGNED_CONTEXT ( ( #28, #82, #105 ) ) REPRESENTATION_CONTEXT ( 'NONE', 'WORKASPACE' ) );
#42 = CARTESIAN_POINT ( 'NONE',  ( 0.000000000000000000, 0.000000000000000000, 0.000000000000000000 ) ) ;
#43 = PERSON_AND_ORGANIZATION ( #101, #10 ) ;
#44 = CARTESIAN_POINT ( 'NONE',  ( 6.000000000000000888, 7.347880794884120722E-16, 0.000000000000000000 ) ) ;
#45 = CIRCLE ( 'NONE', #80, 3.100000000000000089 ) ;
#46 = DATE_TIME_ROLE ( 'creation_date' ) ;
#47 = EDGE_CURVE ( 'NONE', #52, #19, #45, .T. ) ;
#48 = DIRECTION ( 'NONE',  ( -0.000000000000000000, -0.000000000000000000, -1.000000000000000000 ) ) ;
#49 = ADVANCED_FACE ( 'NONE', ( #140 ), #161, .T. ) ;
#50 = ORIENTED_EDGE ( 'NONE', *, *, #6, .F. ) ;
#51 = VERTEX_POINT ( 'NONE', #44 ) ;
#52 = VERTEX_POINT ( 'NONE', #128 ) ;
#53 = CIRCLE ( 'NONE', #176, 6.000000000000000888 ) ;
#54 = VERTEX_POINT ( 'NONE', #252 ) ;
#55 = CC_DESIGN_APPROVAL ( #241, ( #57 ) ) ;
#56 = ORIENTED_EDGE ( 'NONE', *, *, #189, .F. ) ;
#57 = PRODUCT_DEFINITION_FORMATION_WITH_SPECIFIED_SOURCE ( 'LIBOVOLNÝ', '', #79, .NOT_KNOWN. ) ;
#58 = FACE_OUTER_BOUND ( 'NONE', #199, .T. ) ;
#59 = VECTOR ( 'NONE', #165, 1000.000000000000000 ) ;
#60 = DIRECTION ( 'NONE',  ( 1.000000000000000000, 0.000000000000000000, 0.000000000000000000 ) ) ;
#61 = CARTESIAN_POINT ( 'NONE',  ( 0.000000000000000000, 0.000000000000000000, 0.000000000000000000 ) ) ;
#62 = APPROVAL_STATUS ( 'not_yet_approved' ) ;
#63 = DIRECTION ( 'NONE',  ( -1.000000000000000000, 0.000000000000000000, 0.000000000000000000 ) ) ;
#64 = APPROVAL ( #62, 'NEURÈENÝ' ) ;
#65 = APPROVAL_DATE_TIME ( #8, #64 ) ;
#66 = PLANE ( 'NONE',  #123 ) ;
#67 = EDGE_CURVE ( 'NONE', #17, #51, #104, .T. ) ;
#68 = CYLINDRICAL_SURFACE ( 'NONE', #204, 6.000000000000000888 ) ;
#69 = PERSON_AND_ORGANIZATION ( #101, #10 ) ;
#70 = CC_DESIGN_PERSON_AND_ORGANIZATION_ASSIGNMENT ( #133, #217, ( #179 ) ) ;
#71 = CARTESIAN_POINT ( 'NONE',  ( 0.000000000000000000, 0.000000000000000000, 630.0000000000000000 ) ) ;
#72 = DATE_AND_TIME ( #115, #169 ) ;
#73 = CARTESIAN_POINT ( 'NONE',  ( 6.000000000000000888, 7.347880794884120722E-16, 5.000000000000000000 ) ) ;
#74 = LOCAL_TIME ( 13, 9, 43.00000000000000000, #184 ) ;
#75 = ORIENTED_EDGE ( 'NONE', *, *, #117, .F. ) ;
#76 = AXIS2_PLACEMENT_3D ( 'NONE', #31, #250, #111 ) ;
#77 = CARTESIAN_POINT ( 'NONE',  ( 0.000000000000000000, 0.000000000000000000, 5.000000000000000000 ) ) ;
#78 = LOCAL_TIME ( 13, 9, 43.00000000000000000, #190 ) ;
#79 = PRODUCT ( '69cc', '69cc', '', ( #129 ) ) ;
#80 = AXIS2_PLACEMENT_3D ( 'NONE', #71, #157, #238 ) ;
#81 = DIRECTION ( 'NONE',  ( -0.000000000000000000, -0.000000000000000000, -1.000000000000000000 ) ) ;
#82 =( NAMED_UNIT ( * ) PLANE_ANGLE_UNIT ( ) SI_UNIT ( $, .RADIAN. ) );
#83 = CYLINDRICAL_SURFACE ( 'NONE', #5, 3.100000000000000089 ) ;
#84 = DIRECTION ( 'NONE',  ( -0.000000000000000000, -0.000000000000000000, -1.000000000000000000 ) ) ;
#85 = DIRECTION ( 'NONE',  ( -0.000000000000000000, -0.000000000000000000, -1.000000000000000000 ) ) ;
#86 = CALENDAR_DATE ( 2023, 12, 2 ) ;
#87 = CARTESIAN_POINT ( 'NONE',  ( 0.000000000000000000, 0.000000000000000000, 630.0000000000000000 ) ) ;
#88 = AXIS2_PLACEMENT_3D ( 'NONE', #87, #185, #172 ) ;
#89 = PERSON_AND_ORGANIZATION_ROLE ( 'creator' ) ;
#90 = PERSON_AND_ORGANIZATION_ROLE ( 'design_supplier' ) ;
#91 = CALENDAR_DATE ( 2023, 12, 2 ) ;
#92 = EDGE_LOOP ( 'NONE', ( #137, #182, #200, #2 ) ) ;
#93 = PERSON_AND_ORGANIZATION ( #101, #10 ) ;
#94 = CIRCLE ( 'NONE', #113, 3.100000000000000089 ) ;
#95 = ORIENTED_EDGE ( 'NONE', *, *, #98, .T. ) ;
#96 = DIRECTION ( 'NONE',  ( 0.000000000000000000, 0.000000000000000000, 1.000000000000000000 ) ) ;
#97 = AXIS2_PLACEMENT_3D ( 'NONE', #26, #13, #60 ) ;
#98 = EDGE_CURVE ( 'NONE', #19, #52, #173, .T. ) ;
#99 = ORIENTED_EDGE ( 'NONE', *, *, #1, .F. ) ;
#100 = EDGE_LOOP ( 'NONE', ( #56, #37 ) ) ;
#101 = PERSON ( 'NEURÈENÝ', 'NEURÈENÝ', 'NEURÈENÝ', ('NEURÈENÝ'), ('NEURÈENÝ'), ('NEURÈENÝ') ) ;
#102 = DESIGN_CONTEXT ( 'detailed design', #242, 'design' ) ;
#103 = PERSON_AND_ORGANIZATION ( #101, #10 ) ;
#104 = LINE ( 'NONE', #166, #3 ) ;
#105 =( NAMED_UNIT ( * ) SI_UNIT ( $, .STERADIAN. ) SOLID_ANGLE_UNIT ( ) );
#106 = CARTESIAN_POINT ( 'NONE',  ( 0.000000000000000000, 0.000000000000000000, 630.0000000000000000 ) ) ;
#107 = COORDINATED_UNIVERSAL_TIME_OFFSET ( 1, 0, .AHEAD. ) ;
#108 = CARTESIAN_POINT ( 'NONE',  ( 0.000000000000000000, 0.000000000000000000, 5.000000000000000000 ) ) ;
#109 = APPROVAL ( #155, 'NEURÈENÝ' ) ;
#110 = APPROVAL_ROLE ( '' ) ;
#111 = DIRECTION ( 'NONE',  ( -1.000000000000000000, 0.000000000000000000, 0.000000000000000000 ) ) ;
#112 = CIRCLE ( 'NONE', #144, 6.000000000000000888 ) ;
#113 = AXIS2_PLACEMENT_3D ( 'NONE', #232, #96, #219 ) ;
#114 = PERSON_AND_ORGANIZATION ( #101, #10 ) ;
#115 = CALENDAR_DATE ( 2023, 12, 2 ) ;
#116 = CC_DESIGN_PERSON_AND_ORGANIZATION_ASSIGNMENT ( #103, #213, ( #79 ) ) ;
#117 = EDGE_CURVE ( 'NONE', #17, #36, #237, .T. ) ;
#118 = ORIENTED_EDGE ( 'NONE', *, *, #117, .T. ) ;
#119 = CARTESIAN_POINT ( 'NONE',  ( -6.000000000000000888, 0.000000000000000000, 5.000000000000000000 ) ) ;
#120 = DIRECTION ( 'NONE',  ( 1.000000000000000000, 0.000000000000000000, -0.000000000000000000 ) ) ;
#121 = PRODUCT_DEFINITION_SHAPE ( 'NONE', 'NONE',  #142 ) ;
#122 = CC_DESIGN_APPROVAL ( #64, ( #142 ) ) ;
#123 = AXIS2_PLACEMENT_3D ( 'NONE', #227, #187, #145 ) ;
#124 = EDGE_CURVE ( 'NONE', #51, #54, #15, .T. ) ;
#125 = DIRECTION ( 'NONE',  ( 1.000000000000000000, 0.000000000000000000, 0.000000000000000000 ) ) ;
#126 = LINE ( 'NONE', #207, #59 ) ;
#127 = CARTESIAN_POINT ( 'NONE',  ( 3.100000000000000089, 3.796405077356794918E-16, 630.0000000000000000 ) ) ;
#128 = CARTESIAN_POINT ( 'NONE',  ( -3.100000000000000089, 0.000000000000000000, 630.0000000000000000 ) ) ;
#129 = MECHANICAL_CONTEXT ( 'NONE', #138, 'mechanical' ) ;
#130 = DIRECTION ( 'NONE',  ( 0.000000000000000000, 0.000000000000000000, 1.000000000000000000 ) ) ;
#131 = DIRECTION ( 'NONE',  ( 1.000000000000000000, 0.000000000000000000, 0.000000000000000000 ) ) ;
#132 = AXIS2_PLACEMENT_3D ( 'NONE', #14, #212, #147 ) ;
#133 = PERSON_AND_ORGANIZATION ( #101, #10 ) ;
#134 = APPROVAL_DATE_TIME ( #171, #241 ) ;
#135 = ORIENTED_EDGE ( 'NONE', *, *, #243, .F. ) ;
#136 = ADVANCED_FACE ( 'NONE', ( #246 ), #209, .T. ) ;
#137 = ORIENTED_EDGE ( 'NONE', *, *, #98, .F. ) ;
#138 = APPLICATION_CONTEXT ( 'configuration controlled 3d designs of mechanical parts and assemblies' ) ;
#139 = ORIENTED_EDGE ( 'NONE', *, *, #67, .T. ) ;
#140 = FACE_OUTER_BOUND ( 'NONE', #92, .T. ) ;
#141 = ORIENTED_EDGE ( 'NONE', *, *, #192, .F. ) ;
#142 = PRODUCT_DEFINITION ( 'NEZNÁMÝ', '', #57, #102 ) ;
#143 = ADVANCED_FACE ( 'NONE', ( #191 ), #205, .F. ) ;
#144 = AXIS2_PLACEMENT_3D ( 'NONE', #225, #11, #151 ) ;
#145 = DIRECTION ( 'NONE',  ( 1.000000000000000000, 0.000000000000000000, -0.000000000000000000 ) ) ;
#146 = AXIS2_PLACEMENT_3D ( 'NONE', #77, #18, #120 ) ;
#147 = DIRECTION ( 'NONE',  ( 1.000000000000000000, 0.000000000000000000, 0.000000000000000000 ) ) ;
#148 = CC_DESIGN_PERSON_AND_ORGANIZATION_ASSIGNMENT ( #114, #90, ( #57 ) ) ;
#149 = CARTESIAN_POINT ( 'NONE',  ( -3.100000000000000089, 0.000000000000000000, 5.000000000000000000 ) ) ;
#150 = CALENDAR_DATE ( 2023, 12, 2 ) ;
#151 = DIRECTION ( 'NONE',  ( 1.000000000000000000, 0.000000000000000000, 0.000000000000000000 ) ) ;
#152 = CC_DESIGN_PERSON_AND_ORGANIZATION_ASSIGNMENT ( #93, #89, ( #57 ) ) ;
#153 = LINE ( 'NONE', #127, #21 ) ;
#154 = APPROVAL_DATE_TIME ( #231, #109 ) ;
#155 = APPROVAL_STATUS ( 'not_yet_approved' ) ;
#156 = APPROVAL_ROLE ( '' ) ;
#157 = DIRECTION ( 'NONE',  ( 0.000000000000000000, 0.000000000000000000, 1.000000000000000000 ) ) ;
#158 = PLANE ( 'NONE',  #146 ) ;
#159 = FACE_BOUND ( 'NONE', #33, .T. ) ;
#160 = EDGE_LOOP ( 'NONE', ( #75, #139, #20, #141 ) ) ;
#161 = CYLINDRICAL_SURFACE ( 'NONE', #88, 3.100000000000000089 ) ;
#162 = ADVANCED_FACE ( 'NONE', ( #226 ), #68, .T. ) ;
#163 = ADVANCED_FACE ( 'NONE', ( #58 ), #66, .T. ) ;
#164 = APPROVAL_PERSON_ORGANIZATION ( #211, #241, #110 ) ;
#165 = DIRECTION ( 'NONE',  ( -0.000000000000000000, -0.000000000000000000, -1.000000000000000000 ) ) ;
#166 = CARTESIAN_POINT ( 'NONE',  ( 6.000000000000000888, 7.347880794884120722E-16, 5.000000000000000000 ) ) ;
#167 = PERSON_AND_ORGANIZATION ( #101, #10 ) ;
#168 = FACE_OUTER_BOUND ( 'NONE', #181, .T. ) ;
#169 = LOCAL_TIME ( 13, 9, 43.00000000000000000, #233 ) ;
#170 = DIRECTION ( 'NONE',  ( 0.000000000000000000, 0.000000000000000000, 1.000000000000000000 ) ) ;
#171 = DATE_AND_TIME ( #86, #78 ) ;
#172 = DIRECTION ( 'NONE',  ( -1.000000000000000000, 0.000000000000000000, 0.000000000000000000 ) ) ;
#173 = CIRCLE ( 'NONE', #245, 3.100000000000000089 ) ;
#174 = EDGE_CURVE ( 'NONE', #52, #221, #126, .T. ) ;
#175 = COORDINATED_UNIVERSAL_TIME_OFFSET ( 1, 0, .AHEAD. ) ;
#176 = AXIS2_PLACEMENT_3D ( 'NONE', #251, #230, #131 ) ;
#177 = CARTESIAN_POINT ( 'NONE',  ( 3.100000000000000089, 3.796405077356794918E-16, 630.0000000000000000 ) ) ;
#178 = EDGE_LOOP ( 'NONE', ( #223, #118 ) ) ;
#179 = SECURITY_CLASSIFICATION ( '', '', #195 ) ;
#180 = DIRECTION ( 'NONE',  ( 1.000000000000000000, 0.000000000000000000, 0.000000000000000000 ) ) ;
#181 = EDGE_LOOP ( 'NONE', ( #202, #201, #222, #16 ) ) ;
#182 = ORIENTED_EDGE ( 'NONE', *, *, #234, .T. ) ;
#183 = LOCAL_TIME ( 13, 9, 43.00000000000000000, #175 ) ;
#184 = COORDINATED_UNIVERSAL_TIME_OFFSET ( 1, 0, .AHEAD. ) ;
#185 = DIRECTION ( 'NONE',  ( -0.000000000000000000, -0.000000000000000000, -1.000000000000000000 ) ) ;
#186 = DIRECTION ( 'NONE',  ( 1.000000000000000000, 0.000000000000000000, 0.000000000000000000 ) ) ;
#187 = DIRECTION ( 'NONE',  ( 0.000000000000000000, 0.000000000000000000, 1.000000000000000000 ) ) ;
#188 = UNCERTAINTY_MEASURE_WITH_UNIT (LENGTH_MEASURE( 1.000000000000000082E-05 ), #28, 'distance_accuracy_value', 'NONE');
#189 = EDGE_CURVE ( 'NONE', #54, #51, #112, .T. ) ;
#190 = COORDINATED_UNIVERSAL_TIME_OFFSET ( 1, 0, .AHEAD. ) ;
#191 = FACE_OUTER_BOUND ( 'NONE', #100, .T. ) ;
#192 = EDGE_CURVE ( 'NONE', #36, #54, #27, .T. ) ;
#193 = APPLICATION_PROTOCOL_DEFINITION ( 'international standard', 'config_control_design', 1994, #138 ) ;
#194 = AXIS2_PLACEMENT_3D ( 'NONE', #42, #9, #229 ) ;
#195 = SECURITY_CLASSIFICATION_LEVEL ( 'unclassified' ) ;
#196 = APPROVAL_PERSON_ORGANIZATION ( #167, #64, #206 ) ;
#197 = DATE_TIME_ROLE ( 'classification_date' ) ;
#198 = VERTEX_POINT ( 'NONE', #7 ) ;
#199 = EDGE_LOOP ( 'NONE', ( #236, #95 ) ) ;
#200 = ORIENTED_EDGE ( 'NONE', *, *, #1, .T. ) ;
#201 = ORIENTED_EDGE ( 'NONE', *, *, #47, .F. ) ;
#202 = ORIENTED_EDGE ( 'NONE', *, *, #234, .F. ) ;
#203 = MANIFOLD_SOLID_BREP ( 'Pøidat vysunutím3', #210 ) ;
#204 = AXIS2_PLACEMENT_3D ( 'NONE', #108, #81, #29 ) ;
#205 = PLANE ( 'NONE',  #194 ) ;
#206 = APPROVAL_ROLE ( '' ) ;
#207 = CARTESIAN_POINT ( 'NONE',  ( -3.100000000000000089, 0.000000000000000000, 630.0000000000000000 ) ) ;
#208 = PERSON_AND_ORGANIZATION_ROLE ( 'creator' ) ;
#209 = CYLINDRICAL_SURFACE ( 'NONE', #76, 6.000000000000000888 ) ;
#210 = CLOSED_SHELL ( 'NONE', ( #49, #136, #162, #39, #143, #220, #163 ) ) ;
#211 = PERSON_AND_ORGANIZATION ( #101, #10 ) ;
#212 = DIRECTION ( 'NONE',  ( 0.000000000000000000, 0.000000000000000000, 1.000000000000000000 ) ) ;
#213 = PERSON_AND_ORGANIZATION_ROLE ( 'design_owner' ) ;
#214 = VECTOR ( 'NONE', #84, 1000.000000000000000 ) ;
#215 = SHAPE_DEFINITION_REPRESENTATION ( #121, #22 ) ;
#216 = CC_DESIGN_DATE_AND_TIME_ASSIGNMENT ( #72, #197, ( #179 ) ) ;
#217 = PERSON_AND_ORGANIZATION_ROLE ( 'classification_officer' ) ;
#218 = ORIENTED_EDGE ( 'NONE', *, *, #189, .T. ) ;
#219 = DIRECTION ( 'NONE',  ( 1.000000000000000000, 0.000000000000000000, 0.000000000000000000 ) ) ;
#220 = ADVANCED_FACE ( 'NONE', ( #168 ), #83, .T. ) ;
#221 = VERTEX_POINT ( 'NONE', #149 ) ;
#222 = ORIENTED_EDGE ( 'NONE', *, *, #174, .T. ) ;
#223 = ORIENTED_EDGE ( 'NONE', *, *, #243, .T. ) ;
#224 = APPROVAL_PERSON_ORGANIZATION ( #69, #109, #156 ) ;
#225 = CARTESIAN_POINT ( 'NONE',  ( 0.000000000000000000, 0.000000000000000000, 0.000000000000000000 ) ) ;
#226 = FACE_OUTER_BOUND ( 'NONE', #235, .T. ) ;
#227 = CARTESIAN_POINT ( 'NONE',  ( 0.000000000000000000, 0.000000000000000000, 630.0000000000000000 ) ) ;
#228 = DATE_AND_TIME ( #150, #24 ) ;
#229 = DIRECTION ( 'NONE',  ( 1.000000000000000000, 0.000000000000000000, -0.000000000000000000 ) ) ;
#230 = DIRECTION ( 'NONE',  ( 0.000000000000000000, 0.000000000000000000, 1.000000000000000000 ) ) ;
#231 = DATE_AND_TIME ( #91, #183 ) ;
#232 = CARTESIAN_POINT ( 'NONE',  ( 0.000000000000000000, 0.000000000000000000, 5.000000000000000000 ) ) ;
#233 = COORDINATED_UNIVERSAL_TIME_OFFSET ( 1, 0, .AHEAD. ) ;
#234 = EDGE_CURVE ( 'NONE', #19, #198, #153, .T. ) ;
#235 = EDGE_LOOP ( 'NONE', ( #35, #135, #4, #218 ) ) ;
#236 = ORIENTED_EDGE ( 'NONE', *, *, #47, .T. ) ;
#237 = CIRCLE ( 'NONE', #132, 6.000000000000000888 ) ;
#238 = DIRECTION ( 'NONE',  ( 1.000000000000000000, 0.000000000000000000, 0.000000000000000000 ) ) ;
#239 = CC_DESIGN_SECURITY_CLASSIFICATION ( #179, ( #57 ) ) ;
#240 = CIRCLE ( 'NONE', #253, 3.100000000000000089 ) ;
#241 = APPROVAL ( #30, 'NEURÈENÝ' ) ;
#242 = APPLICATION_CONTEXT ( 'configuration controlled 3d designs of mechanical parts and assemblies' ) ;
#243 = EDGE_CURVE ( 'NONE', #36, #17, #53, .T. ) ;
#244 = CARTESIAN_POINT ( 'NONE',  ( 0.000000000000000000, 0.000000000000000000, 630.0000000000000000 ) ) ;
#245 = AXIS2_PLACEMENT_3D ( 'NONE', #244, #170, #125 ) ;
#246 = FACE_OUTER_BOUND ( 'NONE', #160, .T. ) ;
#247 = DIRECTION ( 'NONE',  ( -0.000000000000000000, -0.000000000000000000, -1.000000000000000000 ) ) ;
#248 = CALENDAR_DATE ( 2023, 12, 2 ) ;
#249 = PRODUCT_RELATED_PRODUCT_CATEGORY ( 'detail', '', ( #79 ) ) ;
#250 = DIRECTION ( 'NONE',  ( -0.000000000000000000, -0.000000000000000000, -1.000000000000000000 ) ) ;
#251 = CARTESIAN_POINT ( 'NONE',  ( 0.000000000000000000, 0.000000000000000000, 5.000000000000000000 ) ) ;
#252 = CARTESIAN_POINT ( 'NONE',  ( -6.000000000000000888, 0.000000000000000000, 0.000000000000000000 ) ) ;
#253 = AXIS2_PLACEMENT_3D ( 'NONE', #255, #34, #180 ) ;
#254 = FACE_OUTER_BOUND ( 'NONE', #178, .T. ) ;
#255 = CARTESIAN_POINT ( 'NONE',  ( 0.000000000000000000, 0.000000000000000000, 5.000000000000000000 ) ) ;
ENDSEC;
END-ISO-10303-21;
