ISO-10303-21;
HEADER;
FILE_DESCRIPTION (( 'STEP AP203' ),
    '1' );
FILE_NAME ('8630.STEP',
    '2022-07-07T09:44:30',
    ( '' ),
    ( '' ),
    'SwSTEP 2.0',
    'SolidWorks 2019',
    '' );
FILE_SCHEMA (( 'CONFIG_CONTROL_DESIGN' ));
ENDSEC;

DATA;
#1 = CARTESIAN_POINT ( 'NONE',  ( 0.000000000000000000, 0.000000000000000000, 0.000000000000000000 ) ) ;
#2 = ORIENTED_EDGE ( 'NONE', *, *, #285, .T. ) ;
#3 = SECURITY_CLASSIFICATION_LEVEL ( 'unclassified' ) ;
#4 = CC_DESIGN_DATE_AND_TIME_ASSIGNMENT ( #117, #219, ( #191 ) ) ;
#5 = PERSON_AND_ORGANIZATION ( #272, #226 ) ;
#6 = CIRCLE ( 'NONE', #295, 6.099999999999999645 ) ;
#7 = VERTEX_POINT ( 'NONE', #196 ) ;
#8 = MANIFOLD_SOLID_BREP ( 'Zaoblit1', #139 ) ;
#9 = ORIENTED_EDGE ( 'NONE', *, *, #175, .T. ) ;
#10 = LINE ( 'NONE', #146, #75 ) ;
#11 = CC_DESIGN_PERSON_AND_ORGANIZATION_ASSIGNMENT ( #96, #138, ( #56 ) ) ;
#12 = EDGE_LOOP ( 'NONE', ( #52, #73 ) ) ;
#13 = ORIENTED_EDGE ( 'NONE', *, *, #242, .F. ) ;
#14 = APPROVAL ( #189, 'NEURÈENÝ' ) ;
#15 = ADVANCED_BREP_SHAPE_REPRESENTATION ( '8630', ( #8, #184 ), #118 ) ;
#16 = CARTESIAN_POINT ( 'NONE',  ( 0.000000000000000000, 0.000000000000000000, 407.0000000000000000 ) ) ;
#17 = VERTEX_POINT ( 'NONE', #198 ) ;
#18 = CARTESIAN_POINT ( 'NONE',  ( -6.299999999999998934, 7.715274834628324392E-16, 7.199999999999984190 ) ) ;
#19 = CIRCLE ( 'NONE', #109, 9.000000000000000000 ) ;
#20 = PLANE ( 'NONE',  #270 ) ;
#21 = DIRECTION ( 'NONE',  ( -1.000000000000000000, 0.000000000000000000, 0.000000000000000000 ) ) ;
#22 = TOROIDAL_SURFACE ( 'NONE', #64, 6.299999999999998934, 0.2000000000000000111 ) ;
#23 = CARTESIAN_POINT ( 'NONE',  ( 0.000000000000000000, 0.000000000000000000, 7.199999999999984190 ) ) ;
#24 = AXIS2_PLACEMENT_3D ( 'NONE', #153, #302, #234 ) ;
#25 = DATE_AND_TIME ( #194, #300 ) ;
#26 = VERTEX_POINT ( 'NONE', #53 ) ;
#27 = COORDINATED_UNIVERSAL_TIME_OFFSET ( 1, 0, .AHEAD. ) ;
#28 = CIRCLE ( 'NONE', #61, 9.000000000000000000 ) ;
#29 = PERSON_AND_ORGANIZATION ( #272, #226 ) ;
#30 = CALENDAR_DATE ( 2022, 7, 7 ) ;
#31 = LOCAL_TIME ( 11, 44, 30.00000000000000000, #289 ) ;
#32 = DIRECTION ( 'NONE',  ( -0.000000000000000000, -0.000000000000000000, -1.000000000000000000 ) ) ;
#33 = CARTESIAN_POINT ( 'NONE',  ( 6.099999999999999645, 7.470345474798854293E-16, 407.0000000000000000 ) ) ;
#34 = DIRECTION ( 'NONE',  ( 0.000000000000000000, 0.000000000000000000, 1.000000000000000000 ) ) ;
#35 = APPROVAL_PERSON_ORGANIZATION ( #5, #160, #173 ) ;
#36 = LINE ( 'NONE', #227, #245 ) ;
#37 = DIRECTION ( 'NONE',  ( 0.000000000000000000, 0.000000000000000000, -1.000000000000000000 ) ) ;
#38 = EDGE_CURVE ( 'NONE', #26, #294, #10, .T. ) ;
#39 = DIRECTION ( 'NONE',  ( 0.000000000000000000, 0.000000000000000000, 1.000000000000000000 ) ) ;
#40 = DIRECTION ( 'NONE',  ( 1.000000000000000000, 0.000000000000000000, 0.000000000000000000 ) ) ;
#41 = CIRCLE ( 'NONE', #101, 6.099999999999999645 ) ;
#42 = FACE_OUTER_BOUND ( 'NONE', #200, .T. ) ;
#43 = DIRECTION ( 'NONE',  ( -0.000000000000000000, -0.000000000000000000, -1.000000000000000000 ) ) ;
#44 = ADVANCED_FACE ( 'NONE', ( #148 ), #145, .T. ) ;
#45 = DIRECTION ( 'NONE',  ( 0.000000000000000000, 0.000000000000000000, 1.000000000000000000 ) ) ;
#46 = AXIS2_PLACEMENT_3D ( 'NONE', #301, #229, #63 ) ;
#47 = CIRCLE ( 'NONE', #195, 0.1999999999999996503 ) ;
#48 = ORIENTED_EDGE ( 'NONE', *, *, #131, .T. ) ;
#49 = EDGE_CURVE ( 'NONE', #225, #102, #6, .T. ) ;
#50 = PERSON_AND_ORGANIZATION ( #272, #226 ) ;
#51 = DIRECTION ( 'NONE',  ( -0.000000000000000000, -0.000000000000000000, -1.000000000000000000 ) ) ;
#52 = ORIENTED_EDGE ( 'NONE', *, *, #188, .F. ) ;
#53 = CARTESIAN_POINT ( 'NONE',  ( -9.000000000000000000, 0.000000000000000000, 7.000000000000000000 ) ) ;
#54 = DIRECTION ( 'NONE',  ( 0.000000000000000000, -1.000000000000000000, 0.000000000000000000 ) ) ;
#55 = CIRCLE ( 'NONE', #149, 6.099999999999999645 ) ;
#56 = PRODUCT ( '8630', '8630', '', ( #161 ) ) ;
#57 = CARTESIAN_POINT ( 'NONE',  ( -6.099999999999999645, 0.000000000000000000, 407.0000000000000000 ) ) ;
#58 = FACE_BOUND ( 'NONE', #68, .T. ) ;
#59 = DIRECTION ( 'NONE',  ( 0.000000000000000000, 0.000000000000000000, 1.000000000000000000 ) ) ;
#60 = DIRECTION ( 'NONE',  ( 0.000000000000000000, 0.000000000000000000, 1.000000000000000000 ) ) ;
#61 = AXIS2_PLACEMENT_3D ( 'NONE', #183, #107, #129 ) ;
#62 = DIRECTION ( 'NONE',  ( -1.000000000000000000, 1.224646799147353454E-16, 0.000000000000000000 ) ) ;
#63 = DIRECTION ( 'NONE',  ( -1.000000000000000000, 0.000000000000000000, 0.000000000000000000 ) ) ;
#64 = AXIS2_PLACEMENT_3D ( 'NONE', #185, #106, #304 ) ;
#65 = APPROVAL_STATUS ( 'not_yet_approved' ) ;
#66 =( NAMED_UNIT ( * ) PLANE_ANGLE_UNIT ( ) SI_UNIT ( $, .RADIAN. ) );
#67 = DATE_AND_TIME ( #262, #162 ) ;
#68 = EDGE_LOOP ( 'NONE', ( #244, #224 ) ) ;
#69 = VECTOR ( 'NONE', #152, 1000.000000000000000 ) ;
#70 = CALENDAR_DATE ( 2022, 7, 7 ) ;
#71 = ORIENTED_EDGE ( 'NONE', *, *, #49, .F. ) ;
#72 = AXIS2_PLACEMENT_3D ( 'NONE', #23, #206, #108 ) ;
#73 = ORIENTED_EDGE ( 'NONE', *, *, #159, .F. ) ;
#74 = DIRECTION ( 'NONE',  ( 0.000000000000000000, 0.000000000000000000, 1.000000000000000000 ) ) ;
#75 = VECTOR ( 'NONE', #51, 1000.000000000000000 ) ;
#76 = EDGE_LOOP ( 'NONE', ( #120, #71, #192, #260 ) ) ;
#77 = EDGE_LOOP ( 'NONE', ( #144, #9, #121, #123 ) ) ;
#78 = CC_DESIGN_PERSON_AND_ORGANIZATION_ASSIGNMENT ( #164, #141, ( #191 ) ) ;
#79 = DIRECTION ( 'NONE',  ( 1.000000000000000000, 0.000000000000000000, 0.000000000000000000 ) ) ;
#80 = ORIENTED_EDGE ( 'NONE', *, *, #119, .T. ) ;
#81 = AXIS2_PLACEMENT_3D ( 'NONE', #282, #60, #83 ) ;
#82 = CARTESIAN_POINT ( 'NONE',  ( 0.000000000000000000, 0.000000000000000000, 407.0000000000000000 ) ) ;
#83 = DIRECTION ( 'NONE',  ( 1.000000000000000000, 0.000000000000000000, 0.000000000000000000 ) ) ;
#84 = CYLINDRICAL_SURFACE ( 'NONE', #172, 9.000000000000000000 ) ;
#85 = CARTESIAN_POINT ( 'NONE',  ( -6.099999999999999645, 0.000000000000000000, 407.0000000000000000 ) ) ;
#86 = CIRCLE ( 'NONE', #280, 9.000000000000000000 ) ;
#87 = PLANE ( 'NONE',  #91 ) ;
#88 = DIRECTION ( 'NONE',  ( 1.000000000000000000, 0.000000000000000000, 0.000000000000000000 ) ) ;
#89 = EDGE_CURVE ( 'NONE', #7, #275, #263, .T. ) ;
#90 = APPROVAL_DATE_TIME ( #190, #303 ) ;
#91 = AXIS2_PLACEMENT_3D ( 'NONE', #259, #45, #134 ) ;
#92 = DIRECTION ( 'NONE',  ( 0.000000000000000000, 0.000000000000000000, 1.000000000000000000 ) ) ;
#93 = ORIENTED_EDGE ( 'NONE', *, *, #188, .T. ) ;
#94 = PERSON_AND_ORGANIZATION ( #272, #226 ) ;
#95 = EDGE_LOOP ( 'NONE', ( #298, #80, #265, #296 ) ) ;
#96 = PERSON_AND_ORGANIZATION ( #272, #226 ) ;
#97 = CC_DESIGN_APPROVAL ( #14, ( #230 ) ) ;
#98 = DIRECTION ( 'NONE',  ( 1.000000000000000000, 0.000000000000000000, 0.000000000000000000 ) ) ;
#99 = AXIS2_PLACEMENT_3D ( 'NONE', #16, #74, #127 ) ;
#100 = ORIENTED_EDGE ( 'NONE', *, *, #116, .T. ) ;
#101 = AXIS2_PLACEMENT_3D ( 'NONE', #158, #59, #157 ) ;
#102 = VERTEX_POINT ( 'NONE', #251 ) ;
#103 = DIRECTION ( 'NONE',  ( -1.000000000000000000, 0.000000000000000000, 0.000000000000000000 ) ) ;
#104 = FACE_OUTER_BOUND ( 'NONE', #174, .T. ) ;
#105 = APPROVAL_PERSON_ORGANIZATION ( #50, #303, #193 ) ;
#106 = DIRECTION ( 'NONE',  ( 0.000000000000000000, 0.000000000000000000, 1.000000000000000000 ) ) ;
#107 = DIRECTION ( 'NONE',  ( 0.000000000000000000, 0.000000000000000000, 1.000000000000000000 ) ) ;
#108 = DIRECTION ( 'NONE',  ( 1.000000000000000000, 0.000000000000000000, 0.000000000000000000 ) ) ;
#109 = AXIS2_PLACEMENT_3D ( 'NONE', #156, #132, #40 ) ;
#110 =( LENGTH_UNIT ( ) NAMED_UNIT ( * ) SI_UNIT ( .MILLI., .METRE. ) );
#111 = CARTESIAN_POINT ( 'NONE',  ( 0.000000000000000000, 0.000000000000000000, 7.000000000000000000 ) ) ;
#112 =( NAMED_UNIT ( * ) SI_UNIT ( $, .STERADIAN. ) SOLID_ANGLE_UNIT ( ) );
#113 = VERTEX_POINT ( 'NONE', #252 ) ;
#114 = AXIS2_PLACEMENT_3D ( 'NONE', #82, #154, #255 ) ;
#115 = PERSON_AND_ORGANIZATION_ROLE ( 'design_supplier' ) ;
#116 = EDGE_CURVE ( 'NONE', #102, #7, #178, .T. ) ;
#117 = DATE_AND_TIME ( #30, #207 ) ;
#118 =( GEOMETRIC_REPRESENTATION_CONTEXT ( 3 ) GLOBAL_UNCERTAINTY_ASSIGNED_CONTEXT ( ( #186 ) ) GLOBAL_UNIT_ASSIGNED_CONTEXT ( ( #110, #66, #112 ) ) REPRESENTATION_CONTEXT ( 'NONE', 'WORKASPACE' ) );
#119 = EDGE_CURVE ( 'NONE', #17, #202, #36, .T. ) ;
#120 = ORIENTED_EDGE ( 'NONE', *, *, #116, .F. ) ;
#121 = ORIENTED_EDGE ( 'NONE', *, *, #248, .F. ) ;
#122 = EDGE_CURVE ( 'NONE', #102, #225, #133, .T. ) ;
#123 = ORIENTED_EDGE ( 'NONE', *, *, #89, .F. ) ;
#124 = CC_DESIGN_APPROVAL ( #303, ( #222 ) ) ;
#125 = CARTESIAN_POINT ( 'NONE',  ( 0.000000000000000000, 0.000000000000000000, 407.0000000000000000 ) ) ;
#126 = EDGE_CURVE ( 'NONE', #225, #171, #203, .T. ) ;
#127 = DIRECTION ( 'NONE',  ( 1.000000000000000000, 0.000000000000000000, 0.000000000000000000 ) ) ;
#128 = DIRECTION ( 'NONE',  ( 1.000000000000000000, 0.000000000000000000, 0.000000000000000000 ) ) ;
#129 = DIRECTION ( 'NONE',  ( 1.000000000000000000, 0.000000000000000000, 0.000000000000000000 ) ) ;
#130 = CARTESIAN_POINT ( 'NONE',  ( -6.099999999999999645, 0.000000000000000000, 7.199999999999984190 ) ) ;
#131 = EDGE_CURVE ( 'NONE', #7, #171, #55, .T. ) ;
#132 = DIRECTION ( 'NONE',  ( 0.000000000000000000, 0.000000000000000000, 1.000000000000000000 ) ) ;
#133 = CIRCLE ( 'NONE', #99, 6.099999999999999645 ) ;
#134 = DIRECTION ( 'NONE',  ( 1.000000000000000000, 0.000000000000000000, -0.000000000000000000 ) ) ;
#135 = AXIS2_PLACEMENT_3D ( 'NONE', #111, #283, #237 ) ;
#136 = PRODUCT_RELATED_PRODUCT_CATEGORY ( 'detail', '', ( #56 ) ) ;
#137 = ORIENTED_EDGE ( 'NONE', *, *, #38, .T. ) ;
#138 = PERSON_AND_ORGANIZATION_ROLE ( 'design_owner' ) ;
#139 = CLOSED_SHELL ( 'NONE', ( #257, #151, #182, #163, #220, #268, #44, #276, #140 ) ) ;
#140 = ADVANCED_FACE ( 'NONE', ( #246 ), #22, .F. ) ;
#141 = PERSON_AND_ORGANIZATION_ROLE ( 'classification_officer' ) ;
#142 = EDGE_LOOP ( 'NONE', ( #150, #100, #48, #297 ) ) ;
#143 = PERSON_AND_ORGANIZATION_ROLE ( 'creator' ) ;
#144 = ORIENTED_EDGE ( 'NONE', *, *, #197, .F. ) ;
#145 = CYLINDRICAL_SURFACE ( 'NONE', #204, 6.099999999999999645 ) ;
#146 = CARTESIAN_POINT ( 'NONE',  ( -9.000000000000000000, 0.000000000000000000, 7.000000000000000000 ) ) ;
#147 = CALENDAR_DATE ( 2022, 7, 7 ) ;
#148 = FACE_OUTER_BOUND ( 'NONE', #76, .T. ) ;
#149 = AXIS2_PLACEMENT_3D ( 'NONE', #228, #169, #98 ) ;
#150 = ORIENTED_EDGE ( 'NONE', *, *, #122, .F. ) ;
#151 = ADVANCED_FACE ( 'NONE', ( #187 ), #281, .T. ) ;
#152 = DIRECTION ( 'NONE',  ( -0.000000000000000000, -0.000000000000000000, -1.000000000000000000 ) ) ;
#153 = CARTESIAN_POINT ( 'NONE',  ( 0.000000000000000000, 0.000000000000000000, 7.000000000000000000 ) ) ;
#154 = DIRECTION ( 'NONE',  ( 0.000000000000000000, 0.000000000000000000, 1.000000000000000000 ) ) ;
#155 = VECTOR ( 'NONE', #223, 1000.000000000000000 ) ;
#156 = CARTESIAN_POINT ( 'NONE',  ( 0.000000000000000000, 0.000000000000000000, 7.000000000000000000 ) ) ;
#157 = DIRECTION ( 'NONE',  ( 1.000000000000000000, 0.000000000000000000, 0.000000000000000000 ) ) ;
#158 = CARTESIAN_POINT ( 'NONE',  ( 0.000000000000000000, 0.000000000000000000, 7.199999999999984190 ) ) ;
#159 = EDGE_CURVE ( 'NONE', #202, #294, #177, .T. ) ;
#160 = APPROVAL ( #65, 'NEURÈENÝ' ) ;
#161 = MECHANICAL_CONTEXT ( 'NONE', #236, 'mechanical' ) ;
#162 = LOCAL_TIME ( 11, 44, 30.00000000000000000, #216 ) ;
#163 = ADVANCED_FACE ( 'NONE', ( #42 ), #84, .T. ) ;
#164 = PERSON_AND_ORGANIZATION ( #272, #226 ) ;
#165 = ORIENTED_EDGE ( 'NONE', *, *, #122, .T. ) ;
#166 = CIRCLE ( 'NONE', #135, 6.299999999999998934 ) ;
#167 = APPROVAL_STATUS ( 'not_yet_approved' ) ;
#168 = APPROVAL_DATE_TIME ( #249, #160 ) ;
#169 = DIRECTION ( 'NONE',  ( 0.000000000000000000, 0.000000000000000000, 1.000000000000000000 ) ) ;
#170 = CC_DESIGN_DATE_AND_TIME_ASSIGNMENT ( #67, #292, ( #230 ) ) ;
#171 = VERTEX_POINT ( 'NONE', #130 ) ;
#172 = AXIS2_PLACEMENT_3D ( 'NONE', #254, #43, #210 ) ;
#173 = APPROVAL_ROLE ( '' ) ;
#174 = EDGE_LOOP ( 'NONE', ( #271, #165 ) ) ;
#175 = EDGE_CURVE ( 'NONE', #171, #113, #47, .T. ) ;
#176 = CARTESIAN_POINT ( 'NONE',  ( 6.299999999999998934, 0.000000000000000000, 7.199999999999984190 ) ) ;
#177 = CIRCLE ( 'NONE', #81, 9.000000000000000000 ) ;
#178 = LINE ( 'NONE', #33, #155 ) ;
#179 = CC_DESIGN_APPROVAL ( #160, ( #191 ) ) ;
#180 = CYLINDRICAL_SURFACE ( 'NONE', #291, 9.000000000000000000 ) ;
#181 = CARTESIAN_POINT ( 'NONE',  ( 9.000000000000000000, 1.102182119232617714E-15, 0.000000000000000000 ) ) ;
#182 = ADVANCED_FACE ( 'NONE', ( #213 ), #180, .T. ) ;
#183 = CARTESIAN_POINT ( 'NONE',  ( 0.000000000000000000, 0.000000000000000000, 0.000000000000000000 ) ) ;
#184 = AXIS2_PLACEMENT_3D ( 'NONE', #1, #92, #88 ) ;
#185 = CARTESIAN_POINT ( 'NONE',  ( 0.000000000000000000, 0.000000000000000000, 7.199999999999984190 ) ) ;
#186 = UNCERTAINTY_MEASURE_WITH_UNIT (LENGTH_MEASURE( 1.000000000000000082E-05 ), #110, 'distance_accuracy_value', 'NONE');
#187 = FACE_OUTER_BOUND ( 'NONE', #142, .T. ) ;
#188 = EDGE_CURVE ( 'NONE', #294, #202, #28, .T. ) ;
#189 = APPROVAL_STATUS ( 'not_yet_approved' ) ;
#190 = DATE_AND_TIME ( #70, #31 ) ;
#191 = SECURITY_CLASSIFICATION ( '', '', #3 ) ;
#192 = ORIENTED_EDGE ( 'NONE', *, *, #126, .T. ) ;
#193 = APPROVAL_ROLE ( '' ) ;
#194 = CALENDAR_DATE ( 2022, 7, 7 ) ;
#195 = AXIS2_PLACEMENT_3D ( 'NONE', #18, #253, #62 ) ;
#196 = CARTESIAN_POINT ( 'NONE',  ( 6.099999999999999645, 7.470345474798854293E-16, 7.199999999999984190 ) ) ;
#197 = EDGE_CURVE ( 'NONE', #171, #7, #41, .T. ) ;
#198 = CARTESIAN_POINT ( 'NONE',  ( 9.000000000000000000, 1.102182119232617714E-15, 7.000000000000000000 ) ) ;
#199 = AXIS2_PLACEMENT_3D ( 'NONE', #176, #54, #37 ) ;
#200 = EDGE_LOOP ( 'NONE', ( #290, #13, #137, #93 ) ) ;
#201 = SHAPE_DEFINITION_REPRESENTATION ( #205, #15 ) ;
#202 = VERTEX_POINT ( 'NONE', #181 ) ;
#203 = LINE ( 'NONE', #57, #69 ) ;
#204 = AXIS2_PLACEMENT_3D ( 'NONE', #274, #250, #103 ) ;
#205 = PRODUCT_DEFINITION_SHAPE ( 'NONE', 'NONE',  #230 ) ;
#206 = DIRECTION ( 'NONE',  ( 0.000000000000000000, 0.000000000000000000, 1.000000000000000000 ) ) ;
#207 = LOCAL_TIME ( 11, 44, 30.00000000000000000, #240 ) ;
#208 = FACE_OUTER_BOUND ( 'NONE', #12, .T. ) ;
#209 = CC_DESIGN_PERSON_AND_ORGANIZATION_ASSIGNMENT ( #306, #239, ( #222 ) ) ;
#210 = DIRECTION ( 'NONE',  ( -1.000000000000000000, 0.000000000000000000, 0.000000000000000000 ) ) ;
#211 = DIRECTION ( 'NONE',  ( 1.000000000000000000, 0.000000000000000000, -0.000000000000000000 ) ) ;
#212 = CC_DESIGN_SECURITY_CLASSIFICATION ( #191, ( #222 ) ) ;
#213 = FACE_OUTER_BOUND ( 'NONE', #95, .T. ) ;
#214 = APPLICATION_PROTOCOL_DEFINITION ( 'international standard', 'config_control_design', 1994, #236 ) ;
#215 = PERSON_AND_ORGANIZATION ( #272, #226 ) ;
#216 = COORDINATED_UNIVERSAL_TIME_OFFSET ( 1, 0, .AHEAD. ) ;
#217 = TOROIDAL_SURFACE ( 'NONE', #72, 6.299999999999998934, 0.2000000000000000111 ) ;
#218 = ORIENTED_EDGE ( 'NONE', *, *, #89, .T. ) ;
#219 = DATE_TIME_ROLE ( 'classification_date' ) ;
#220 = ADVANCED_FACE ( 'NONE', ( #58, #231 ), #20, .T. ) ;
#221 = CC_DESIGN_PERSON_AND_ORGANIZATION_ASSIGNMENT ( #29, #115, ( #222 ) ) ;
#222 = PRODUCT_DEFINITION_FORMATION_WITH_SPECIFIED_SOURCE ( 'LIBOVOLNÝ', '', #56, .NOT_KNOWN. ) ;
#223 = DIRECTION ( 'NONE',  ( -0.000000000000000000, -0.000000000000000000, -1.000000000000000000 ) ) ;
#224 = ORIENTED_EDGE ( 'NONE', *, *, #307, .T. ) ;
#225 = VERTEX_POINT ( 'NONE', #85 ) ;
#226 = ORGANIZATION ( 'NEURÈENÝ', 'NEURÈENÝ', '' ) ;
#227 = CARTESIAN_POINT ( 'NONE',  ( 9.000000000000000000, 1.102182119232617714E-15, 7.000000000000000000 ) ) ;
#228 = CARTESIAN_POINT ( 'NONE',  ( 0.000000000000000000, 0.000000000000000000, 7.199999999999984190 ) ) ;
#229 = DIRECTION ( 'NONE',  ( -0.000000000000000000, -0.000000000000000000, -1.000000000000000000 ) ) ;
#230 = PRODUCT_DEFINITION ( 'NEZNÁMÝ', '', #222, #233 ) ;
#231 = FACE_OUTER_BOUND ( 'NONE', #241, .T. ) ;
#232 = CARTESIAN_POINT ( 'NONE',  ( 0.000000000000000000, 0.000000000000000000, 7.000000000000000000 ) ) ;
#233 = DESIGN_CONTEXT ( 'detailed design', #258, 'design' ) ;
#234 = DIRECTION ( 'NONE',  ( 1.000000000000000000, 0.000000000000000000, 0.000000000000000000 ) ) ;
#235 = CARTESIAN_POINT ( 'NONE',  ( 6.299999999999998934, 0.000000000000000000, 6.999999999999992006 ) ) ;
#236 = APPLICATION_CONTEXT ( 'configuration controlled 3d designs of mechanical parts and assemblies' ) ;
#237 = DIRECTION ( 'NONE',  ( 1.000000000000000000, 0.000000000000000000, 0.000000000000000000 ) ) ;
#238 = APPLICATION_PROTOCOL_DEFINITION ( 'international standard', 'config_control_design', 1994, #258 ) ;
#239 = PERSON_AND_ORGANIZATION_ROLE ( 'creator' ) ;
#240 = COORDINATED_UNIVERSAL_TIME_OFFSET ( 1, 0, .AHEAD. ) ;
#241 = EDGE_LOOP ( 'NONE', ( #269, #2 ) ) ;
#242 = EDGE_CURVE ( 'NONE', #26, #17, #19, .T. ) ;
#243 = CC_DESIGN_PERSON_AND_ORGANIZATION_ASSIGNMENT ( #94, #143, ( #230 ) ) ;
#244 = ORIENTED_EDGE ( 'NONE', *, *, #248, .T. ) ;
#245 = VECTOR ( 'NONE', #32, 1000.000000000000000 ) ;
#246 = FACE_OUTER_BOUND ( 'NONE', #267, .T. ) ;
#247 = CIRCLE ( 'NONE', #24, 6.299999999999998934 ) ;
#248 = EDGE_CURVE ( 'NONE', #275, #113, #247, .T. ) ;
#249 = DATE_AND_TIME ( #147, #286 ) ;
#250 = DIRECTION ( 'NONE',  ( -0.000000000000000000, -0.000000000000000000, -1.000000000000000000 ) ) ;
#251 = CARTESIAN_POINT ( 'NONE',  ( 6.099999999999999645, 7.470345474798854293E-16, 407.0000000000000000 ) ) ;
#252 = CARTESIAN_POINT ( 'NONE',  ( -6.299999999999998934, 7.715274834628324392E-16, 6.999999999999992006 ) ) ;
#253 = DIRECTION ( 'NONE',  ( 1.224646799147353207E-16, 1.000000000000000000, -0.000000000000000000 ) ) ;
#254 = CARTESIAN_POINT ( 'NONE',  ( 0.000000000000000000, 0.000000000000000000, 7.000000000000000000 ) ) ;
#255 = DIRECTION ( 'NONE',  ( 1.000000000000000000, 0.000000000000000000, -0.000000000000000000 ) ) ;
#256 = CARTESIAN_POINT ( 'NONE',  ( 0.000000000000000000, 0.000000000000000000, 7.000000000000000000 ) ) ;
#257 = ADVANCED_FACE ( 'NONE', ( #278 ), #217, .F. ) ;
#258 = APPLICATION_CONTEXT ( 'configuration controlled 3d designs of mechanical parts and assemblies' ) ;
#259 = CARTESIAN_POINT ( 'NONE',  ( 0.000000000000000000, 0.000000000000000000, 0.000000000000000000 ) ) ;
#260 = ORIENTED_EDGE ( 'NONE', *, *, #197, .T. ) ;
#261 = CARTESIAN_POINT ( 'NONE',  ( -9.000000000000000000, 0.000000000000000000, 0.000000000000000000 ) ) ;
#262 = CALENDAR_DATE ( 2022, 7, 7 ) ;
#263 = CIRCLE ( 'NONE', #199, 0.1999999999999996503 ) ;
#264 = APPROVAL_PERSON_ORGANIZATION ( #215, #14, #266 ) ;
#265 = ORIENTED_EDGE ( 'NONE', *, *, #159, .T. ) ;
#266 = APPROVAL_ROLE ( '' ) ;
#267 = EDGE_LOOP ( 'NONE', ( #284, #288, #218, #293 ) ) ;
#268 = ADVANCED_FACE ( 'NONE', ( #208 ), #87, .F. ) ;
#269 = ORIENTED_EDGE ( 'NONE', *, *, #242, .T. ) ;
#270 = AXIS2_PLACEMENT_3D ( 'NONE', #256, #279, #211 ) ;
#271 = ORIENTED_EDGE ( 'NONE', *, *, #49, .T. ) ;
#272 = PERSON ( 'NEURÈENÝ', 'NEURÈENÝ', 'NEURÈENÝ', ('NEURÈENÝ'), ('NEURÈENÝ'), ('NEURÈENÝ') ) ;
#273 = COORDINATED_UNIVERSAL_TIME_OFFSET ( 1, 0, .AHEAD. ) ;
#274 = CARTESIAN_POINT ( 'NONE',  ( 0.000000000000000000, 0.000000000000000000, 407.0000000000000000 ) ) ;
#275 = VERTEX_POINT ( 'NONE', #235 ) ;
#276 = ADVANCED_FACE ( 'NONE', ( #104 ), #299, .T. ) ;
#277 = CARTESIAN_POINT ( 'NONE',  ( 0.000000000000000000, 0.000000000000000000, 7.000000000000000000 ) ) ;
#278 = FACE_OUTER_BOUND ( 'NONE', #77, .T. ) ;
#279 = DIRECTION ( 'NONE',  ( 0.000000000000000000, 0.000000000000000000, 1.000000000000000000 ) ) ;
#280 = AXIS2_PLACEMENT_3D ( 'NONE', #277, #39, #128 ) ;
#281 = CYLINDRICAL_SURFACE ( 'NONE', #46, 6.099999999999999645 ) ;
#282 = CARTESIAN_POINT ( 'NONE',  ( 0.000000000000000000, 0.000000000000000000, 0.000000000000000000 ) ) ;
#283 = DIRECTION ( 'NONE',  ( -0.000000000000000000, -0.000000000000000000, -1.000000000000000000 ) ) ;
#284 = ORIENTED_EDGE ( 'NONE', *, *, #175, .F. ) ;
#285 = EDGE_CURVE ( 'NONE', #17, #26, #86, .T. ) ;
#286 = LOCAL_TIME ( 11, 44, 30.00000000000000000, #273 ) ;
#287 = APPROVAL_DATE_TIME ( #25, #14 ) ;
#288 = ORIENTED_EDGE ( 'NONE', *, *, #131, .F. ) ;
#289 = COORDINATED_UNIVERSAL_TIME_OFFSET ( 1, 0, .AHEAD. ) ;
#290 = ORIENTED_EDGE ( 'NONE', *, *, #119, .F. ) ;
#291 = AXIS2_PLACEMENT_3D ( 'NONE', #232, #305, #21 ) ;
#292 = DATE_TIME_ROLE ( 'creation_date' ) ;
#293 = ORIENTED_EDGE ( 'NONE', *, *, #307, .F. ) ;
#294 = VERTEX_POINT ( 'NONE', #261 ) ;
#295 = AXIS2_PLACEMENT_3D ( 'NONE', #125, #34, #79 ) ;
#296 = ORIENTED_EDGE ( 'NONE', *, *, #38, .F. ) ;
#297 = ORIENTED_EDGE ( 'NONE', *, *, #126, .F. ) ;
#298 = ORIENTED_EDGE ( 'NONE', *, *, #285, .F. ) ;
#299 = PLANE ( 'NONE',  #114 ) ;
#300 = LOCAL_TIME ( 11, 44, 30.00000000000000000, #27 ) ;
#301 = CARTESIAN_POINT ( 'NONE',  ( 0.000000000000000000, 0.000000000000000000, 407.0000000000000000 ) ) ;
#302 = DIRECTION ( 'NONE',  ( -0.000000000000000000, -0.000000000000000000, -1.000000000000000000 ) ) ;
#303 = APPROVAL ( #167, 'NEURÈENÝ' ) ;
#304 = DIRECTION ( 'NONE',  ( 1.000000000000000000, 0.000000000000000000, 0.000000000000000000 ) ) ;
#305 = DIRECTION ( 'NONE',  ( -0.000000000000000000, -0.000000000000000000, -1.000000000000000000 ) ) ;
#306 = PERSON_AND_ORGANIZATION ( #272, #226 ) ;
#307 = EDGE_CURVE ( 'NONE', #113, #275, #166, .T. ) ;
ENDSEC;
END-ISO-10303-21;
