ISO-10303-21;
HEADER;
FILE_DESCRIPTION (( 'STEP AP203' ),
    '1' );
FILE_NAME ('c72c.STEP',
    '2023-02-12T12:18:19',
    ( '' ),
    ( '' ),
    'SwSTEP 2.0',
    'SolidWorks 2019',
    '' );
FILE_SCHEMA (( 'CONFIG_CONTROL_DESIGN' ));
ENDSEC;

DATA;
#1 = PRODUCT_RELATED_PRODUCT_CATEGORY ( 'detail', '', ( #175 ) ) ;
#2 = ADVANCED_FACE ( 'NONE', ( #6 ), #177, .F. ) ;
#3 = AXIS2_PLACEMENT_3D ( 'NONE', #26, #27, #14 ) ;
#4 = ORIENTED_EDGE ( 'NONE', *, *, #80, .T. ) ;
#5 = LOCAL_TIME ( 13, 18, 19.00000000000000000, #38 ) ;
#6 = FACE_OUTER_BOUND ( 'NONE', #43, .T. ) ;
#7 = CARTESIAN_POINT ( 'NONE',  ( 0.000000000000000000, 0.000000000000000000, 0.000000000000000000 ) ) ;
#8 = EDGE_LOOP ( 'NONE', ( #224, #62, #199, #103 ) ) ;
#9 = CYLINDRICAL_SURFACE ( 'NONE', #167, 3.000000000000000444 ) ;
#10 = DIRECTION ( 'NONE',  ( 1.000000000000000000, 0.000000000000000000, 0.000000000000000000 ) ) ;
#11 = VECTOR ( 'NONE', #207, 1000.000000000000000 ) ;
#12 = CC_DESIGN_DATE_AND_TIME_ASSIGNMENT ( #234, #198, ( #173 ) ) ;
#13 = CARTESIAN_POINT ( 'NONE',  ( -6.000000000000000888, 0.000000000000000000, 5.000000000000000000 ) ) ;
#14 = DIRECTION ( 'NONE',  ( 1.000000000000000000, 0.000000000000000000, 0.000000000000000000 ) ) ;
#15 = DIRECTION ( 'NONE',  ( -0.000000000000000000, -0.000000000000000000, -1.000000000000000000 ) ) ;
#16 = DIRECTION ( 'NONE',  ( 0.000000000000000000, 0.000000000000000000, 1.000000000000000000 ) ) ;
#17 = CC_DESIGN_PERSON_AND_ORGANIZATION_ASSIGNMENT ( #60, #139, ( #155 ) ) ;
#18 = APPROVAL_DATE_TIME ( #83, #189 ) ;
#19 = APPROVAL_DATE_TIME ( #20, #59 ) ;
#20 = DATE_AND_TIME ( #195, #5 ) ;
#21 = APPLICATION_CONTEXT ( 'configuration controlled 3d designs of mechanical parts and assemblies' ) ;
#22 = EDGE_LOOP ( 'NONE', ( #218, #77 ) ) ;
#23 = EDGE_CURVE ( 'NONE', #101, #197, #84, .T. ) ;
#24 = ORIENTED_EDGE ( 'NONE', *, *, #135, .T. ) ;
#25 = DIRECTION ( 'NONE',  ( 1.000000000000000000, 0.000000000000000000, -0.000000000000000000 ) ) ;
#26 = CARTESIAN_POINT ( 'NONE',  ( 0.000000000000000000, 0.000000000000000000, 500.0000000000000000 ) ) ;
#27 = DIRECTION ( 'NONE',  ( 0.000000000000000000, 0.000000000000000000, 1.000000000000000000 ) ) ;
#28 = DIRECTION ( 'NONE',  ( 1.000000000000000000, 0.000000000000000000, 0.000000000000000000 ) ) ;
#29 = APPLICATION_PROTOCOL_DEFINITION ( 'international standard', 'config_control_design', 1994, #98 ) ;
#30 = DIRECTION ( 'NONE',  ( 0.000000000000000000, 0.000000000000000000, 1.000000000000000000 ) ) ;
#31 = DIRECTION ( 'NONE',  ( -1.000000000000000000, 0.000000000000000000, 0.000000000000000000 ) ) ;
#32 = APPROVAL_PERSON_ORGANIZATION ( #61, #189, #42 ) ;
#33 = MANIFOLD_SOLID_BREP ( 'Pøidat vysunutím3', #235 ) ;
#34 = CC_DESIGN_DATE_AND_TIME_ASSIGNMENT ( #36, #115, ( #216 ) ) ;
#35 = CIRCLE ( 'NONE', #220, 6.000000000000000888 ) ;
#36 = DATE_AND_TIME ( #215, #95 ) ;
#37 = ADVANCED_BREP_SHAPE_REPRESENTATION ( 'c72c', ( #33, #121 ), #113 ) ;
#38 = COORDINATED_UNIVERSAL_TIME_OFFSET ( 1, 0, .AHEAD. ) ;
#39 = EDGE_CURVE ( 'NONE', #57, #40, #250, .T. ) ;
#40 = VERTEX_POINT ( 'NONE', #171 ) ;
#41 = VECTOR ( 'NONE', #163, 1000.000000000000000 ) ;
#42 = APPROVAL_ROLE ( '' ) ;
#43 = EDGE_LOOP ( 'NONE', ( #180, #221 ) ) ;
#44 = ORIENTED_EDGE ( 'NONE', *, *, #102, .F. ) ;
#45 = DIRECTION ( 'NONE',  ( -0.000000000000000000, -0.000000000000000000, -1.000000000000000000 ) ) ;
#46 = APPLICATION_PROTOCOL_DEFINITION ( 'international standard', 'config_control_design', 1994, #21 ) ;
#47 = LINE ( 'NONE', #108, #194 ) ;
#48 = PERSON_AND_ORGANIZATION_ROLE ( 'design_owner' ) ;
#49 = MECHANICAL_CONTEXT ( 'NONE', #98, 'mechanical' ) ;
#50 = PLANE ( 'NONE',  #154 ) ;
#51 = FACE_OUTER_BOUND ( 'NONE', #140, .T. ) ;
#52 = AXIS2_PLACEMENT_3D ( 'NONE', #132, #186, #164 ) ;
#53 = APPROVAL ( #227, 'NEURÈENÝ' ) ;
#54 = PRODUCT_DEFINITION_SHAPE ( 'NONE', 'NONE',  #173 ) ;
#55 = COORDINATED_UNIVERSAL_TIME_OFFSET ( 1, 0, .AHEAD. ) ;
#56 = LOCAL_TIME ( 13, 18, 19.00000000000000000, #251 ) ;
#57 = VERTEX_POINT ( 'NONE', #111 ) ;
#58 = ORIENTED_EDGE ( 'NONE', *, *, #76, .F. ) ;
#59 = APPROVAL ( #159, 'NEURÈENÝ' ) ;
#60 = PERSON_AND_ORGANIZATION ( #192, #144 ) ;
#61 = PERSON_AND_ORGANIZATION ( #192, #144 ) ;
#62 = ORIENTED_EDGE ( 'NONE', *, *, #129, .F. ) ;
#63 = CARTESIAN_POINT ( 'NONE',  ( 0.000000000000000000, 0.000000000000000000, 5.000000000000000000 ) ) ;
#64 = PERSON_AND_ORGANIZATION ( #192, #144 ) ;
#65 = FACE_OUTER_BOUND ( 'NONE', #117, .T. ) ;
#66 = DESIGN_CONTEXT ( 'detailed design', #21, 'design' ) ;
#67 = DIRECTION ( 'NONE',  ( 0.000000000000000000, 0.000000000000000000, 1.000000000000000000 ) ) ;
#68 = DIRECTION ( 'NONE',  ( 0.000000000000000000, 0.000000000000000000, 1.000000000000000000 ) ) ;
#69 = DIRECTION ( 'NONE',  ( -1.000000000000000000, 0.000000000000000000, 0.000000000000000000 ) ) ;
#70 = DATE_AND_TIME ( #172, #56 ) ;
#71 = EDGE_CURVE ( 'NONE', #197, #120, #47, .T. ) ;
#72 = CARTESIAN_POINT ( 'NONE',  ( 0.000000000000000000, 0.000000000000000000, 0.000000000000000000 ) ) ;
#73 = COORDINATED_UNIVERSAL_TIME_OFFSET ( 1, 0, .AHEAD. ) ;
#74 = AXIS2_PLACEMENT_3D ( 'NONE', #247, #210, #28 ) ;
#75 = PERSON_AND_ORGANIZATION_ROLE ( 'classification_officer' ) ;
#76 = EDGE_CURVE ( 'NONE', #197, #101, #82, .T. ) ;
#77 = ORIENTED_EDGE ( 'NONE', *, *, #80, .F. ) ;
#78 = PERSON_AND_ORGANIZATION ( #192, #144 ) ;
#79 = ORIENTED_EDGE ( 'NONE', *, *, #249, .T. ) ;
#80 = EDGE_CURVE ( 'NONE', #120, #85, #157, .T. ) ;
#81 = ORIENTED_EDGE ( 'NONE', *, *, #249, .F. ) ;
#82 = CIRCLE ( 'NONE', #124, 3.000000000000000444 ) ;
#83 = DATE_AND_TIME ( #178, #236 ) ;
#84 = CIRCLE ( 'NONE', #3, 3.000000000000000444 ) ;
#85 = VERTEX_POINT ( 'NONE', #245 ) ;
#86 = FACE_OUTER_BOUND ( 'NONE', #162, .T. ) ;
#87 = FACE_OUTER_BOUND ( 'NONE', #202, .T. ) ;
#88 = CC_DESIGN_PERSON_AND_ORGANIZATION_ASSIGNMENT ( #119, #222, ( #155 ) ) ;
#89 = FACE_BOUND ( 'NONE', #22, .T. ) ;
#90 =( LENGTH_UNIT ( ) NAMED_UNIT ( * ) SI_UNIT ( .MILLI., .METRE. ) );
#91 = DIRECTION ( 'NONE',  ( 1.000000000000000000, 0.000000000000000000, 0.000000000000000000 ) ) ;
#92 = CARTESIAN_POINT ( 'NONE',  ( 0.000000000000000000, 0.000000000000000000, 5.000000000000000000 ) ) ;
#93 = PERSON_AND_ORGANIZATION ( #192, #144 ) ;
#94 = DIRECTION ( 'NONE',  ( 1.000000000000000000, 0.000000000000000000, 0.000000000000000000 ) ) ;
#95 = LOCAL_TIME ( 13, 18, 19.00000000000000000, #55 ) ;
#96 = CC_DESIGN_APPROVAL ( #59, ( #216 ) ) ;
#97 = EDGE_CURVE ( 'NONE', #85, #120, #118, .T. ) ;
#98 = APPLICATION_CONTEXT ( 'configuration controlled 3d designs of mechanical parts and assemblies' ) ;
#99 = SHAPE_DEFINITION_REPRESENTATION ( #54, #37 ) ;
#100 = ORIENTED_EDGE ( 'NONE', *, *, #23, .T. ) ;
#101 = VERTEX_POINT ( 'NONE', #168 ) ;
#102 = EDGE_CURVE ( 'NONE', #161, #137, #185, .T. ) ;
#103 = ORIENTED_EDGE ( 'NONE', *, *, #196, .T. ) ;
#104 = APPROVAL_PERSON_ORGANIZATION ( #78, #59, #239 ) ;
#105 = VECTOR ( 'NONE', #15, 1000.000000000000000 ) ;
#106 = CARTESIAN_POINT ( 'NONE',  ( 3.000000000000000444, 3.673940397442060361E-16, 500.0000000000000000 ) ) ;
#107 = CARTESIAN_POINT ( 'NONE',  ( 0.000000000000000000, 0.000000000000000000, 500.0000000000000000 ) ) ;
#108 = CARTESIAN_POINT ( 'NONE',  ( 3.000000000000000444, 3.673940397442060361E-16, 500.0000000000000000 ) ) ;
#109 = ADVANCED_FACE ( 'NONE', ( #89, #65 ), #50, .T. ) ;
#110 = CYLINDRICAL_SURFACE ( 'NONE', #226, 6.000000000000000888 ) ;
#111 = CARTESIAN_POINT ( 'NONE',  ( 6.000000000000000888, 7.347880794884120722E-16, 5.000000000000000000 ) ) ;
#112 = AXIS2_PLACEMENT_3D ( 'NONE', #72, #152, #233 ) ;
#113 =( GEOMETRIC_REPRESENTATION_CONTEXT ( 3 ) GLOBAL_UNCERTAINTY_ASSIGNED_CONTEXT ( ( #149 ) ) GLOBAL_UNIT_ASSIGNED_CONTEXT ( ( #90, #151, #147 ) ) REPRESENTATION_CONTEXT ( 'NONE', 'WORKASPACE' ) );
#114 = AXIS2_PLACEMENT_3D ( 'NONE', #148, #203, #91 ) ;
#115 = DATE_TIME_ROLE ( 'classification_date' ) ;
#116 = COORDINATED_UNIVERSAL_TIME_OFFSET ( 1, 0, .AHEAD. ) ;
#117 = EDGE_LOOP ( 'NONE', ( #160, #79 ) ) ;
#118 = CIRCLE ( 'NONE', #114, 3.000000000000000444 ) ;
#119 = PERSON_AND_ORGANIZATION ( #192, #144 ) ;
#120 = VERTEX_POINT ( 'NONE', #229 ) ;
#121 = AXIS2_PLACEMENT_3D ( 'NONE', #190, #16, #211 ) ;
#122 = ORIENTED_EDGE ( 'NONE', *, *, #193, .F. ) ;
#123 = ORIENTED_EDGE ( 'NONE', *, *, #76, .T. ) ;
#124 = AXIS2_PLACEMENT_3D ( 'NONE', #126, #125, #10 ) ;
#125 = DIRECTION ( 'NONE',  ( 0.000000000000000000, 0.000000000000000000, 1.000000000000000000 ) ) ;
#126 = CARTESIAN_POINT ( 'NONE',  ( 0.000000000000000000, 0.000000000000000000, 500.0000000000000000 ) ) ;
#127 = CARTESIAN_POINT ( 'NONE',  ( 0.000000000000000000, 0.000000000000000000, 5.000000000000000000 ) ) ;
#128 = CARTESIAN_POINT ( 'NONE',  ( 0.000000000000000000, 0.000000000000000000, 500.0000000000000000 ) ) ;
#129 = EDGE_CURVE ( 'NONE', #161, #57, #35, .T. ) ;
#130 = DIRECTION ( 'NONE',  ( 1.000000000000000000, 0.000000000000000000, 0.000000000000000000 ) ) ;
#131 = CARTESIAN_POINT ( 'NONE',  ( -6.000000000000000888, 0.000000000000000000, 0.000000000000000000 ) ) ;
#132 = CARTESIAN_POINT ( 'NONE',  ( 0.000000000000000000, 0.000000000000000000, 5.000000000000000000 ) ) ;
#133 = CC_DESIGN_PERSON_AND_ORGANIZATION_ASSIGNMENT ( #64, #143, ( #173 ) ) ;
#134 = CIRCLE ( 'NONE', #112, 6.000000000000000888 ) ;
#135 = EDGE_CURVE ( 'NONE', #40, #137, #184, .T. ) ;
#136 = AXIS2_PLACEMENT_3D ( 'NONE', #208, #68, #231 ) ;
#137 = VERTEX_POINT ( 'NONE', #131 ) ;
#138 = SECURITY_CLASSIFICATION_LEVEL ( 'unclassified' ) ;
#139 = PERSON_AND_ORGANIZATION_ROLE ( 'creator' ) ;
#140 = EDGE_LOOP ( 'NONE', ( #240, #243, #242, #176 ) ) ;
#141 = CC_DESIGN_PERSON_AND_ORGANIZATION_ASSIGNMENT ( #219, #75, ( #216 ) ) ;
#142 = FACE_OUTER_BOUND ( 'NONE', #8, .T. ) ;
#143 = PERSON_AND_ORGANIZATION_ROLE ( 'creator' ) ;
#144 = ORGANIZATION ( 'NEURÈENÝ', 'NEURÈENÝ', '' ) ;
#145 = DIRECTION ( 'NONE',  ( -0.000000000000000000, -0.000000000000000000, -1.000000000000000000 ) ) ;
#146 = ADVANCED_FACE ( 'NONE', ( #142 ), #110, .T. ) ;
#147 =( NAMED_UNIT ( * ) SI_UNIT ( $, .STERADIAN. ) SOLID_ANGLE_UNIT ( ) );
#148 = CARTESIAN_POINT ( 'NONE',  ( 0.000000000000000000, 0.000000000000000000, 5.000000000000000000 ) ) ;
#149 = UNCERTAINTY_MEASURE_WITH_UNIT (LENGTH_MEASURE( 1.000000000000000082E-05 ), #90, 'distance_accuracy_value', 'NONE');
#150 = FACE_OUTER_BOUND ( 'NONE', #223, .T. ) ;
#151 =( NAMED_UNIT ( * ) PLANE_ANGLE_UNIT ( ) SI_UNIT ( $, .RADIAN. ) );
#152 = DIRECTION ( 'NONE',  ( 0.000000000000000000, 0.000000000000000000, 1.000000000000000000 ) ) ;
#153 = CALENDAR_DATE ( 2023, 12, 2 ) ;
#154 = AXIS2_PLACEMENT_3D ( 'NONE', #63, #187, #25 ) ;
#155 = PRODUCT_DEFINITION_FORMATION_WITH_SPECIFIED_SOURCE ( 'LIBOVOLNÝ', '', #175, .NOT_KNOWN. ) ;
#156 = ADVANCED_FACE ( 'NONE', ( #150 ), #252, .T. ) ;
#157 = CIRCLE ( 'NONE', #191, 3.000000000000000444 ) ;
#158 = ORIENTED_EDGE ( 'NONE', *, *, #39, .T. ) ;
#159 = APPROVAL_STATUS ( 'not_yet_approved' ) ;
#160 = ORIENTED_EDGE ( 'NONE', *, *, #129, .T. ) ;
#161 = VERTEX_POINT ( 'NONE', #188 ) ;
#162 = EDGE_LOOP ( 'NONE', ( #58, #181, #4, #122 ) ) ;
#163 = DIRECTION ( 'NONE',  ( -0.000000000000000000, -0.000000000000000000, -1.000000000000000000 ) ) ;
#164 = DIRECTION ( 'NONE',  ( -1.000000000000000000, 0.000000000000000000, 0.000000000000000000 ) ) ;
#165 = CARTESIAN_POINT ( 'NONE',  ( 0.000000000000000000, 0.000000000000000000, 5.000000000000000000 ) ) ;
#166 = CC_DESIGN_APPROVAL ( #53, ( #173 ) ) ;
#167 = AXIS2_PLACEMENT_3D ( 'NONE', #225, #45, #244 ) ;
#168 = CARTESIAN_POINT ( 'NONE',  ( -3.000000000000000444, 0.000000000000000000, 500.0000000000000000 ) ) ;
#169 = DIRECTION ( 'NONE',  ( -0.000000000000000000, -0.000000000000000000, -1.000000000000000000 ) ) ;
#170 = DIRECTION ( 'NONE',  ( -0.000000000000000000, -0.000000000000000000, -1.000000000000000000 ) ) ;
#171 = CARTESIAN_POINT ( 'NONE',  ( 6.000000000000000888, 7.347880794884120722E-16, 0.000000000000000000 ) ) ;
#172 = CALENDAR_DATE ( 2023, 12, 2 ) ;
#173 = PRODUCT_DEFINITION ( 'NEZNÁMÝ', '', #155, #66 ) ;
#174 = LOCAL_TIME ( 13, 18, 19.00000000000000000, #73 ) ;
#175 = PRODUCT ( 'c72c', 'c72c', '', ( #49 ) ) ;
#176 = ORIENTED_EDGE ( 'NONE', *, *, #97, .T. ) ;
#177 = PLANE ( 'NONE',  #238 ) ;
#178 = CALENDAR_DATE ( 2023, 12, 2 ) ;
#179 = CC_DESIGN_PERSON_AND_ORGANIZATION_ASSIGNMENT ( #93, #48, ( #175 ) ) ;
#180 = ORIENTED_EDGE ( 'NONE', *, *, #196, .F. ) ;
#181 = ORIENTED_EDGE ( 'NONE', *, *, #71, .T. ) ;
#182 = CARTESIAN_POINT ( 'NONE',  ( 6.000000000000000888, 7.347880794884120722E-16, 5.000000000000000000 ) ) ;
#183 = DIRECTION ( 'NONE',  ( 1.000000000000000000, 0.000000000000000000, -0.000000000000000000 ) ) ;
#184 = CIRCLE ( 'NONE', #74, 6.000000000000000888 ) ;
#185 = LINE ( 'NONE', #13, #11 ) ;
#186 = DIRECTION ( 'NONE',  ( -0.000000000000000000, -0.000000000000000000, -1.000000000000000000 ) ) ;
#187 = DIRECTION ( 'NONE',  ( 0.000000000000000000, 0.000000000000000000, 1.000000000000000000 ) ) ;
#188 = CARTESIAN_POINT ( 'NONE',  ( -6.000000000000000888, 0.000000000000000000, 5.000000000000000000 ) ) ;
#189 = APPROVAL ( #201, 'NEURÈENÝ' ) ;
#190 = CARTESIAN_POINT ( 'NONE',  ( 0.000000000000000000, 0.000000000000000000, 0.000000000000000000 ) ) ;
#191 = AXIS2_PLACEMENT_3D ( 'NONE', #127, #30, #94 ) ;
#192 = PERSON ( 'NEURÈENÝ', 'NEURÈENÝ', 'NEURÈENÝ', ('NEURÈENÝ'), ('NEURÈENÝ'), ('NEURÈENÝ') ) ;
#193 = EDGE_CURVE ( 'NONE', #101, #85, #228, .T. ) ;
#194 = VECTOR ( 'NONE', #145, 1000.000000000000000 ) ;
#195 = CALENDAR_DATE ( 2023, 12, 2 ) ;
#196 = EDGE_CURVE ( 'NONE', #137, #40, #134, .T. ) ;
#197 = VERTEX_POINT ( 'NONE', #106 ) ;
#198 = DATE_TIME_ROLE ( 'creation_date' ) ;
#199 = ORIENTED_EDGE ( 'NONE', *, *, #102, .T. ) ;
#200 = CIRCLE ( 'NONE', #136, 6.000000000000000888 ) ;
#201 = APPROVAL_STATUS ( 'not_yet_approved' ) ;
#202 = EDGE_LOOP ( 'NONE', ( #81, #158, #24, #44 ) ) ;
#203 = DIRECTION ( 'NONE',  ( 0.000000000000000000, 0.000000000000000000, 1.000000000000000000 ) ) ;
#204 = APPROVAL_PERSON_ORGANIZATION ( #214, #53, #246 ) ;
#205 = CARTESIAN_POINT ( 'NONE',  ( -3.000000000000000444, 0.000000000000000000, 500.0000000000000000 ) ) ;
#206 = CYLINDRICAL_SURFACE ( 'NONE', #52, 6.000000000000000888 ) ;
#207 = DIRECTION ( 'NONE',  ( -0.000000000000000000, -0.000000000000000000, -1.000000000000000000 ) ) ;
#208 = CARTESIAN_POINT ( 'NONE',  ( 0.000000000000000000, 0.000000000000000000, 5.000000000000000000 ) ) ;
#209 = AXIS2_PLACEMENT_3D ( 'NONE', #107, #230, #212 ) ;
#210 = DIRECTION ( 'NONE',  ( 0.000000000000000000, 0.000000000000000000, 1.000000000000000000 ) ) ;
#211 = DIRECTION ( 'NONE',  ( 1.000000000000000000, 0.000000000000000000, 0.000000000000000000 ) ) ;
#212 = DIRECTION ( 'NONE',  ( 1.000000000000000000, 0.000000000000000000, -0.000000000000000000 ) ) ;
#213 = CYLINDRICAL_SURFACE ( 'NONE', #255, 3.000000000000000444 ) ;
#214 = PERSON_AND_ORGANIZATION ( #192, #144 ) ;
#215 = CALENDAR_DATE ( 2023, 12, 2 ) ;
#216 = SECURITY_CLASSIFICATION ( '', '', #138 ) ;
#217 = ADVANCED_FACE ( 'NONE', ( #86 ), #9, .T. ) ;
#218 = ORIENTED_EDGE ( 'NONE', *, *, #97, .F. ) ;
#219 = PERSON_AND_ORGANIZATION ( #192, #144 ) ;
#220 = AXIS2_PLACEMENT_3D ( 'NONE', #165, #67, #130 ) ;
#221 = ORIENTED_EDGE ( 'NONE', *, *, #135, .F. ) ;
#222 = PERSON_AND_ORGANIZATION_ROLE ( 'design_supplier' ) ;
#223 = EDGE_LOOP ( 'NONE', ( #100, #123 ) ) ;
#224 = ORIENTED_EDGE ( 'NONE', *, *, #39, .F. ) ;
#225 = CARTESIAN_POINT ( 'NONE',  ( 0.000000000000000000, 0.000000000000000000, 500.0000000000000000 ) ) ;
#226 = AXIS2_PLACEMENT_3D ( 'NONE', #92, #170, #69 ) ;
#227 = APPROVAL_STATUS ( 'not_yet_approved' ) ;
#228 = LINE ( 'NONE', #205, #105 ) ;
#229 = CARTESIAN_POINT ( 'NONE',  ( 3.000000000000000444, 3.673940397442060361E-16, 5.000000000000000000 ) ) ;
#230 = DIRECTION ( 'NONE',  ( 0.000000000000000000, 0.000000000000000000, 1.000000000000000000 ) ) ;
#231 = DIRECTION ( 'NONE',  ( 1.000000000000000000, 0.000000000000000000, 0.000000000000000000 ) ) ;
#232 = CC_DESIGN_APPROVAL ( #189, ( #155 ) ) ;
#233 = DIRECTION ( 'NONE',  ( 1.000000000000000000, 0.000000000000000000, 0.000000000000000000 ) ) ;
#234 = DATE_AND_TIME ( #153, #174 ) ;
#235 = CLOSED_SHELL ( 'NONE', ( #217, #237, #146, #109, #2, #241, #156 ) ) ;
#236 = LOCAL_TIME ( 13, 18, 19.00000000000000000, #116 ) ;
#237 = ADVANCED_FACE ( 'NONE', ( #87 ), #206, .T. ) ;
#238 = AXIS2_PLACEMENT_3D ( 'NONE', #7, #248, #183 ) ;
#239 = APPROVAL_ROLE ( '' ) ;
#240 = ORIENTED_EDGE ( 'NONE', *, *, #71, .F. ) ;
#241 = ADVANCED_FACE ( 'NONE', ( #51 ), #213, .T. ) ;
#242 = ORIENTED_EDGE ( 'NONE', *, *, #193, .T. ) ;
#243 = ORIENTED_EDGE ( 'NONE', *, *, #23, .F. ) ;
#244 = DIRECTION ( 'NONE',  ( -1.000000000000000000, 0.000000000000000000, 0.000000000000000000 ) ) ;
#245 = CARTESIAN_POINT ( 'NONE',  ( -3.000000000000000444, 0.000000000000000000, 5.000000000000000000 ) ) ;
#246 = APPROVAL_ROLE ( '' ) ;
#247 = CARTESIAN_POINT ( 'NONE',  ( 0.000000000000000000, 0.000000000000000000, 0.000000000000000000 ) ) ;
#248 = DIRECTION ( 'NONE',  ( 0.000000000000000000, 0.000000000000000000, 1.000000000000000000 ) ) ;
#249 = EDGE_CURVE ( 'NONE', #57, #161, #200, .T. ) ;
#250 = LINE ( 'NONE', #182, #41 ) ;
#251 = COORDINATED_UNIVERSAL_TIME_OFFSET ( 1, 0, .AHEAD. ) ;
#252 = PLANE ( 'NONE',  #209 ) ;
#253 = APPROVAL_DATE_TIME ( #70, #53 ) ;
#254 = CC_DESIGN_SECURITY_CLASSIFICATION ( #216, ( #155 ) ) ;
#255 = AXIS2_PLACEMENT_3D ( 'NONE', #128, #169, #31 ) ;
ENDSEC;
END-ISO-10303-21;
