ISO-10303-21;
HEADER;
FILE_DESCRIPTION (( 'STEP AP203' ),
    '1' );
FILE_NAME ('8818.STEP',
    '2023-02-12T11:46:34',
    ( '' ),
    ( '' ),
    'SwSTEP 2.0',
    'SolidWorks 2019',
    '' );
FILE_SCHEMA (( 'CONFIG_CONTROL_DESIGN' ));
ENDSEC;

DATA;
#1 = DIRECTION ( 'NONE',  ( 1.000000000000000000, 0.000000000000000000, -0.000000000000000000 ) ) ;
#2 = APPROVAL_PERSON_ORGANIZATION ( #86, #77, #151 ) ;
#3 = PLANE ( 'NONE',  #186 ) ;
#4 = PERSON ( 'NEURÈENÝ', 'NEURÈENÝ', 'NEURÈENÝ', ('NEURÈENÝ'), ('NEURÈENÝ'), ('NEURÈENÝ') ) ;
#5 = APPROVAL_DATE_TIME ( #114, #77 ) ;
#6 = CC_DESIGN_PERSON_AND_ORGANIZATION_ASSIGNMENT ( #82, #165, ( #222 ) ) ;
#7 = PERSON_AND_ORGANIZATION_ROLE ( 'design_owner' ) ;
#8 = COORDINATED_UNIVERSAL_TIME_OFFSET ( 1, 0, .AHEAD. ) ;
#9 = DIRECTION ( 'NONE',  ( -1.000000000000000000, 0.000000000000000000, 0.000000000000000000 ) ) ;
#10 = PERSON_AND_ORGANIZATION_ROLE ( 'classification_officer' ) ;
#11 = ORIENTED_EDGE ( 'NONE', *, *, #59, .T. ) ;
#12 = DATE_AND_TIME ( #120, #68 ) ;
#13 = EDGE_CURVE ( 'NONE', #14, #225, #72, .T. ) ;
#14 = VERTEX_POINT ( 'NONE', #156 ) ;
#15 = VERTEX_POINT ( 'NONE', #102 ) ;
#16 = CARTESIAN_POINT ( 'NONE',  ( -4.099999999999999645, 0.000000000000000000, 160.0000000000000000 ) ) ;
#17 = DIRECTION ( 'NONE',  ( 0.000000000000000000, 0.000000000000000000, 1.000000000000000000 ) ) ;
#18 = CARTESIAN_POINT ( 'NONE',  ( -4.099999999999999645, 0.000000000000000000, 160.0000000000000000 ) ) ;
#19 = CARTESIAN_POINT ( 'NONE',  ( 0.000000000000000000, 0.000000000000000000, 160.0000000000000000 ) ) ;
#20 = CARTESIAN_POINT ( 'NONE',  ( 0.000000000000000000, 0.000000000000000000, 160.0000000000000000 ) ) ;
#21 = DIRECTION ( 'NONE',  ( 1.000000000000000000, 0.000000000000000000, 0.000000000000000000 ) ) ;
#22 = CC_DESIGN_PERSON_AND_ORGANIZATION_ASSIGNMENT ( #239, #145, ( #222 ) ) ;
#23 = ORIENTED_EDGE ( 'NONE', *, *, #119, .T. ) ;
#24 = DIRECTION ( 'NONE',  ( 1.000000000000000000, 0.000000000000000000, 0.000000000000000000 ) ) ;
#25 = CALENDAR_DATE ( 2023, 12, 2 ) ;
#26 = DIRECTION ( 'NONE',  ( 0.000000000000000000, 0.000000000000000000, 1.000000000000000000 ) ) ;
#27 = EDGE_CURVE ( 'NONE', #108, #250, #81, .T. ) ;
#28 = DATE_AND_TIME ( #25, #49 ) ;
#29 = ORIENTED_EDGE ( 'NONE', *, *, #162, .T. ) ;
#30 = ORIENTED_EDGE ( 'NONE', *, *, #115, .T. ) ;
#31 = CIRCLE ( 'NONE', #63, 4.099999999999999645 ) ;
#32 = DIRECTION ( 'NONE',  ( -0.000000000000000000, -0.000000000000000000, -1.000000000000000000 ) ) ;
#33 = PERSON_AND_ORGANIZATION ( #4, #58 ) ;
#34 = ORIENTED_EDGE ( 'NONE', *, *, #27, .T. ) ;
#35 = DIRECTION ( 'NONE',  ( 1.000000000000000000, 0.000000000000000000, 0.000000000000000000 ) ) ;
#36 = AXIS2_PLACEMENT_3D ( 'NONE', #101, #237, #196 ) ;
#37 = FACE_OUTER_BOUND ( 'NONE', #92, .T. ) ;
#38 = CARTESIAN_POINT ( 'NONE',  ( 0.000000000000000000, 0.000000000000000000, 5.000000000000000000 ) ) ;
#39 = DIRECTION ( 'NONE',  ( 1.000000000000000000, 0.000000000000000000, 0.000000000000000000 ) ) ;
#40 = CIRCLE ( 'NONE', #36, 4.099999999999999645 ) ;
#41 = FACE_OUTER_BOUND ( 'NONE', #171, .T. ) ;
#42 = AXIS2_PLACEMENT_3D ( 'NONE', #20, #125, #106 ) ;
#43 = CIRCLE ( 'NONE', #71, 7.000000000000000000 ) ;
#44 = MANIFOLD_SOLID_BREP ( 'Pøidat vysunutím3', #83 ) ;
#45 = APPROVAL_ROLE ( '' ) ;
#46 = PERSON_AND_ORGANIZATION_ROLE ( 'creator' ) ;
#47 = CARTESIAN_POINT ( 'NONE',  ( 0.000000000000000000, 0.000000000000000000, 160.0000000000000000 ) ) ;
#48 = DESIGN_CONTEXT ( 'detailed design', #228, 'design' ) ;
#49 = LOCAL_TIME ( 12, 46, 34.00000000000000000, #166 ) ;
#50 = CC_DESIGN_DATE_AND_TIME_ASSIGNMENT ( #133, #242, ( #127 ) ) ;
#51 = ORIENTED_EDGE ( 'NONE', *, *, #130, .T. ) ;
#52 = SHAPE_DEFINITION_REPRESENTATION ( #143, #124 ) ;
#53 = VERTEX_POINT ( 'NONE', #16 ) ;
#54 = APPROVAL ( #111, 'NEURÈENÝ' ) ;
#55 = CARTESIAN_POINT ( 'NONE',  ( 0.000000000000000000, 0.000000000000000000, 5.000000000000000000 ) ) ;
#56 = DIRECTION ( 'NONE',  ( 1.000000000000000000, 0.000000000000000000, -0.000000000000000000 ) ) ;
#57 = VECTOR ( 'NONE', #32, 1000.000000000000000 ) ;
#58 = ORGANIZATION ( 'NEURÈENÝ', 'NEURÈENÝ', '' ) ;
#59 = EDGE_CURVE ( 'NONE', #15, #132, #40, .T. ) ;
#60 = FACE_BOUND ( 'NONE', #174, .T. ) ;
#61 = DIRECTION ( 'NONE',  ( 0.000000000000000000, 0.000000000000000000, 1.000000000000000000 ) ) ;
#62 = CARTESIAN_POINT ( 'NONE',  ( 0.000000000000000000, 0.000000000000000000, 5.000000000000000000 ) ) ;
#63 = AXIS2_PLACEMENT_3D ( 'NONE', #19, #219, #128 ) ;
#64 = LOCAL_TIME ( 12, 46, 34.00000000000000000, #224 ) ;
#65 = PERSON_AND_ORGANIZATION ( #4, #58 ) ;
#66 = APPLICATION_CONTEXT ( 'configuration controlled 3d designs of mechanical parts and assemblies' ) ;
#67 = FACE_OUTER_BOUND ( 'NONE', #232, .T. ) ;
#68 = LOCAL_TIME ( 12, 46, 34.00000000000000000, #192 ) ;
#69 = CALENDAR_DATE ( 2023, 12, 2 ) ;
#70 = ORIENTED_EDGE ( 'NONE', *, *, #188, .T. ) ;
#71 = AXIS2_PLACEMENT_3D ( 'NONE', #218, #17, #39 ) ;
#72 = LINE ( 'NONE', #155, #57 ) ;
#73 = ORIENTED_EDGE ( 'NONE', *, *, #231, .F. ) ;
#74 = CARTESIAN_POINT ( 'NONE',  ( 0.000000000000000000, 0.000000000000000000, 0.000000000000000000 ) ) ;
#75 = PLANE ( 'NONE',  #157 ) ;
#76 = PRODUCT ( '8818', '8818', '', ( #223 ) ) ;
#77 = APPROVAL ( #244, 'NEURÈENÝ' ) ;
#78 = CARTESIAN_POINT ( 'NONE',  ( 0.000000000000000000, 0.000000000000000000, 5.000000000000000000 ) ) ;
#79 = CC_DESIGN_APPROVAL ( #54, ( #127 ) ) ;
#80 = DIRECTION ( 'NONE',  ( 0.000000000000000000, 0.000000000000000000, 1.000000000000000000 ) ) ;
#81 = LINE ( 'NONE', #126, #152 ) ;
#82 = PERSON_AND_ORGANIZATION ( #4, #58 ) ;
#83 = CLOSED_SHELL ( 'NONE', ( #100, #249, #110, #205, #177, #170, #105 ) ) ;
#84 = CIRCLE ( 'NONE', #122, 4.099999999999999645 ) ;
#85 =( NAMED_UNIT ( * ) PLANE_ANGLE_UNIT ( ) SI_UNIT ( $, .RADIAN. ) );
#86 = PERSON_AND_ORGANIZATION ( #4, #58 ) ;
#87 = APPROVAL_PERSON_ORGANIZATION ( #33, #181, #89 ) ;
#88 = ORIENTED_EDGE ( 'NONE', *, *, #188, .F. ) ;
#89 = APPROVAL_ROLE ( '' ) ;
#90 = ORIENTED_EDGE ( 'NONE', *, *, #146, .F. ) ;
#91 = CIRCLE ( 'NONE', #251, 7.000000000000000000 ) ;
#92 = EDGE_LOOP ( 'NONE', ( #51, #29 ) ) ;
#93 = ORIENTED_EDGE ( 'NONE', *, *, #119, .F. ) ;
#94 = DATE_TIME_ROLE ( 'classification_date' ) ;
#95 = CC_DESIGN_DATE_AND_TIME_ASSIGNMENT ( #12, #94, ( #183 ) ) ;
#96 = ORIENTED_EDGE ( 'NONE', *, *, #13, .F. ) ;
#97 = AXIS2_PLACEMENT_3D ( 'NONE', #38, #180, #199 ) ;
#98 = ORIENTED_EDGE ( 'NONE', *, *, #221, .T. ) ;
#99 = DIRECTION ( 'NONE',  ( -0.000000000000000000, -0.000000000000000000, -1.000000000000000000 ) ) ;
#100 = ADVANCED_FACE ( 'NONE', ( #41 ), #140, .T. ) ;
#101 = CARTESIAN_POINT ( 'NONE',  ( 0.000000000000000000, 0.000000000000000000, 5.000000000000000000 ) ) ;
#102 = CARTESIAN_POINT ( 'NONE',  ( 4.099999999999999645, 5.021051876504147385E-16, 5.000000000000000000 ) ) ;
#103 = CC_DESIGN_APPROVAL ( #181, ( #183 ) ) ;
#104 = FACE_OUTER_BOUND ( 'NONE', #247, .T. ) ;
#105 = ADVANCED_FACE ( 'NONE', ( #255 ), #3, .T. ) ;
#106 = DIRECTION ( 'NONE',  ( -1.000000000000000000, 0.000000000000000000, 0.000000000000000000 ) ) ;
#107 =( LENGTH_UNIT ( ) NAMED_UNIT ( * ) SI_UNIT ( .MILLI., .METRE. ) );
#108 = VERTEX_POINT ( 'NONE', #238 ) ;
#109 = DIRECTION ( 'NONE',  ( -0.000000000000000000, -0.000000000000000000, -1.000000000000000000 ) ) ;
#110 = ADVANCED_FACE ( 'NONE', ( #217 ), #236, .T. ) ;
#111 = APPROVAL_STATUS ( 'not_yet_approved' ) ;
#112 = VECTOR ( 'NONE', #121, 1000.000000000000000 ) ;
#113 = UNCERTAINTY_MEASURE_WITH_UNIT (LENGTH_MEASURE( 1.000000000000000082E-05 ), #107, 'distance_accuracy_value', 'NONE');
#114 = DATE_AND_TIME ( #207, #64 ) ;
#115 = EDGE_CURVE ( 'NONE', #132, #15, #135, .T. ) ;
#116 = ORIENTED_EDGE ( 'NONE', *, *, #226, .T. ) ;
#117 = EDGE_LOOP ( 'NONE', ( #73, #208, #23, #30 ) ) ;
#118 =( GEOMETRIC_REPRESENTATION_CONTEXT ( 3 ) GLOBAL_UNCERTAINTY_ASSIGNED_CONTEXT ( ( #113 ) ) GLOBAL_UNIT_ASSIGNED_CONTEXT ( ( #107, #85, #243 ) ) REPRESENTATION_CONTEXT ( 'NONE', 'WORKASPACE' ) );
#119 = EDGE_CURVE ( 'NONE', #53, #132, #159, .T. ) ;
#120 = CALENDAR_DATE ( 2023, 12, 2 ) ;
#121 = DIRECTION ( 'NONE',  ( -0.000000000000000000, -0.000000000000000000, -1.000000000000000000 ) ) ;
#122 = AXIS2_PLACEMENT_3D ( 'NONE', #47, #134, #21 ) ;
#123 = CARTESIAN_POINT ( 'NONE',  ( 0.000000000000000000, 0.000000000000000000, 160.0000000000000000 ) ) ;
#124 = ADVANCED_BREP_SHAPE_REPRESENTATION ( '8818', ( #44, #241 ), #118 ) ;
#125 = DIRECTION ( 'NONE',  ( -0.000000000000000000, -0.000000000000000000, -1.000000000000000000 ) ) ;
#126 = CARTESIAN_POINT ( 'NONE',  ( -7.000000000000000000, 0.000000000000000000, 5.000000000000000000 ) ) ;
#127 = PRODUCT_DEFINITION ( 'NEZNÁMÝ', '', #222, #48 ) ;
#128 = DIRECTION ( 'NONE',  ( 1.000000000000000000, 0.000000000000000000, 0.000000000000000000 ) ) ;
#129 = CALENDAR_DATE ( 2023, 12, 2 ) ;
#130 = EDGE_CURVE ( 'NONE', #108, #14, #91, .T. ) ;
#131 = CIRCLE ( 'NONE', #195, 7.000000000000000000 ) ;
#132 = VERTEX_POINT ( 'NONE', #197 ) ;
#133 = DATE_AND_TIME ( #129, #178 ) ;
#134 = DIRECTION ( 'NONE',  ( 0.000000000000000000, 0.000000000000000000, 1.000000000000000000 ) ) ;
#135 = CIRCLE ( 'NONE', #202, 4.099999999999999645 ) ;
#136 = CC_DESIGN_PERSON_AND_ORGANIZATION_ASSIGNMENT ( #65, #7, ( #76 ) ) ;
#137 = AXIS2_PLACEMENT_3D ( 'NONE', #214, #80, #141 ) ;
#138 = PLANE ( 'NONE',  #137 ) ;
#139 = CYLINDRICAL_SURFACE ( 'NONE', #42, 4.099999999999999645 ) ;
#140 = CYLINDRICAL_SURFACE ( 'NONE', #175, 4.099999999999999645 ) ;
#141 = DIRECTION ( 'NONE',  ( 1.000000000000000000, 0.000000000000000000, -0.000000000000000000 ) ) ;
#142 = CC_DESIGN_PERSON_AND_ORGANIZATION_ASSIGNMENT ( #248, #10, ( #183 ) ) ;
#143 = PRODUCT_DEFINITION_SHAPE ( 'NONE', 'NONE',  #127 ) ;
#144 = DIRECTION ( 'NONE',  ( 0.000000000000000000, 0.000000000000000000, 1.000000000000000000 ) ) ;
#145 = PERSON_AND_ORGANIZATION_ROLE ( 'design_supplier' ) ;
#146 = EDGE_CURVE ( 'NONE', #193, #53, #31, .T. ) ;
#147 = LINE ( 'NONE', #167, #246 ) ;
#148 = PERSON_AND_ORGANIZATION ( #4, #58 ) ;
#149 = CARTESIAN_POINT ( 'NONE',  ( -7.000000000000000000, 0.000000000000000000, 0.000000000000000000 ) ) ;
#150 = CC_DESIGN_APPROVAL ( #77, ( #222 ) ) ;
#151 = APPROVAL_ROLE ( '' ) ;
#152 = VECTOR ( 'NONE', #163, 1000.000000000000000 ) ;
#153 = ORIENTED_EDGE ( 'NONE', *, *, #146, .T. ) ;
#154 = CC_DESIGN_PERSON_AND_ORGANIZATION_ASSIGNMENT ( #189, #46, ( #127 ) ) ;
#155 = CARTESIAN_POINT ( 'NONE',  ( 7.000000000000000000, 8.572527594031473190E-16, 5.000000000000000000 ) ) ;
#156 = CARTESIAN_POINT ( 'NONE',  ( 7.000000000000000000, 8.572527594031473190E-16, 5.000000000000000000 ) ) ;
#157 = AXIS2_PLACEMENT_3D ( 'NONE', #235, #198, #56 ) ;
#158 = DIRECTION ( 'NONE',  ( 0.000000000000000000, 0.000000000000000000, 1.000000000000000000 ) ) ;
#159 = LINE ( 'NONE', #18, #112 ) ;
#160 = DIRECTION ( 'NONE',  ( 1.000000000000000000, 0.000000000000000000, 0.000000000000000000 ) ) ;
#161 = APPROVAL_PERSON_ORGANIZATION ( #148, #54, #45 ) ;
#162 = EDGE_CURVE ( 'NONE', #14, #108, #131, .T. ) ;
#163 = DIRECTION ( 'NONE',  ( -0.000000000000000000, -0.000000000000000000, -1.000000000000000000 ) ) ;
#164 = CARTESIAN_POINT ( 'NONE',  ( 0.000000000000000000, 0.000000000000000000, 160.0000000000000000 ) ) ;
#165 = PERSON_AND_ORGANIZATION_ROLE ( 'creator' ) ;
#166 = COORDINATED_UNIVERSAL_TIME_OFFSET ( 1, 0, .AHEAD. ) ;
#167 = CARTESIAN_POINT ( 'NONE',  ( 4.099999999999999645, 5.021051876504147385E-16, 160.0000000000000000 ) ) ;
#168 = DIRECTION ( 'NONE',  ( -0.000000000000000000, -0.000000000000000000, -1.000000000000000000 ) ) ;
#169 = APPLICATION_PROTOCOL_DEFINITION ( 'international standard', 'config_control_design', 1994, #66 ) ;
#170 = ADVANCED_FACE ( 'NONE', ( #200 ), #139, .T. ) ;
#171 = EDGE_LOOP ( 'NONE', ( #90, #213, #11, #93 ) ) ;
#172 = APPROVAL_STATUS ( 'not_yet_approved' ) ;
#173 = DATE_AND_TIME ( #69, #212 ) ;
#174 = EDGE_LOOP ( 'NONE', ( #191, #194 ) ) ;
#175 = AXIS2_PLACEMENT_3D ( 'NONE', #123, #99, #216 ) ;
#176 = EDGE_LOOP ( 'NONE', ( #96, #252, #34, #98 ) ) ;
#177 = ADVANCED_FACE ( 'NONE', ( #104 ), #75, .F. ) ;
#178 = LOCAL_TIME ( 12, 46, 34.00000000000000000, #8 ) ;
#179 = DIRECTION ( 'NONE',  ( 1.000000000000000000, 0.000000000000000000, 0.000000000000000000 ) ) ;
#180 = DIRECTION ( 'NONE',  ( -0.000000000000000000, -0.000000000000000000, -1.000000000000000000 ) ) ;
#181 = APPROVAL ( #172, 'NEURÈENÝ' ) ;
#182 = DIRECTION ( 'NONE',  ( 0.000000000000000000, 0.000000000000000000, 1.000000000000000000 ) ) ;
#183 = SECURITY_CLASSIFICATION ( '', '', #220 ) ;
#184 = CARTESIAN_POINT ( 'NONE',  ( 7.000000000000000000, 8.572527594031473190E-16, 0.000000000000000000 ) ) ;
#185 = DIRECTION ( 'NONE',  ( 0.000000000000000000, 0.000000000000000000, 1.000000000000000000 ) ) ;
#186 = AXIS2_PLACEMENT_3D ( 'NONE', #164, #185, #1 ) ;
#187 = APPROVAL_DATE_TIME ( #28, #54 ) ;
#188 = EDGE_CURVE ( 'NONE', #225, #250, #190, .T. ) ;
#189 = PERSON_AND_ORGANIZATION ( #4, #58 ) ;
#190 = CIRCLE ( 'NONE', #240, 7.000000000000000000 ) ;
#191 = ORIENTED_EDGE ( 'NONE', *, *, #115, .F. ) ;
#192 = COORDINATED_UNIVERSAL_TIME_OFFSET ( 1, 0, .AHEAD. ) ;
#193 = VERTEX_POINT ( 'NONE', #234 ) ;
#194 = ORIENTED_EDGE ( 'NONE', *, *, #59, .F. ) ;
#195 = AXIS2_PLACEMENT_3D ( 'NONE', #78, #182, #35 ) ;
#196 = DIRECTION ( 'NONE',  ( 1.000000000000000000, 0.000000000000000000, 0.000000000000000000 ) ) ;
#197 = CARTESIAN_POINT ( 'NONE',  ( -4.099999999999999645, 0.000000000000000000, 5.000000000000000000 ) ) ;
#198 = DIRECTION ( 'NONE',  ( 0.000000000000000000, 0.000000000000000000, 1.000000000000000000 ) ) ;
#199 = DIRECTION ( 'NONE',  ( -1.000000000000000000, 0.000000000000000000, 0.000000000000000000 ) ) ;
#200 = FACE_OUTER_BOUND ( 'NONE', #117, .T. ) ;
#201 = CARTESIAN_POINT ( 'NONE',  ( 0.000000000000000000, 0.000000000000000000, 0.000000000000000000 ) ) ;
#202 = AXIS2_PLACEMENT_3D ( 'NONE', #62, #61, #179 ) ;
#203 = CYLINDRICAL_SURFACE ( 'NONE', #253, 7.000000000000000000 ) ;
#204 = APPLICATION_PROTOCOL_DEFINITION ( 'international standard', 'config_control_design', 1994, #228 ) ;
#205 = ADVANCED_FACE ( 'NONE', ( #60, #37 ), #138, .T. ) ;
#206 = CARTESIAN_POINT ( 'NONE',  ( 0.000000000000000000, 0.000000000000000000, 5.000000000000000000 ) ) ;
#207 = CALENDAR_DATE ( 2023, 12, 2 ) ;
#208 = ORIENTED_EDGE ( 'NONE', *, *, #226, .F. ) ;
#209 = EDGE_LOOP ( 'NONE', ( #116, #153 ) ) ;
#210 = ORIENTED_EDGE ( 'NONE', *, *, #221, .F. ) ;
#211 = ORIENTED_EDGE ( 'NONE', *, *, #162, .F. ) ;
#212 = LOCAL_TIME ( 12, 46, 34.00000000000000000, #229 ) ;
#213 = ORIENTED_EDGE ( 'NONE', *, *, #231, .T. ) ;
#214 = CARTESIAN_POINT ( 'NONE',  ( 0.000000000000000000, 0.000000000000000000, 5.000000000000000000 ) ) ;
#215 = PRODUCT_RELATED_PRODUCT_CATEGORY ( 'detail', '', ( #76 ) ) ;
#216 = DIRECTION ( 'NONE',  ( -1.000000000000000000, 0.000000000000000000, 0.000000000000000000 ) ) ;
#217 = FACE_OUTER_BOUND ( 'NONE', #176, .T. ) ;
#218 = CARTESIAN_POINT ( 'NONE',  ( 0.000000000000000000, 0.000000000000000000, 0.000000000000000000 ) ) ;
#219 = DIRECTION ( 'NONE',  ( 0.000000000000000000, 0.000000000000000000, 1.000000000000000000 ) ) ;
#220 = SECURITY_CLASSIFICATION_LEVEL ( 'unclassified' ) ;
#221 = EDGE_CURVE ( 'NONE', #250, #225, #43, .T. ) ;
#222 = PRODUCT_DEFINITION_FORMATION_WITH_SPECIFIED_SOURCE ( 'LIBOVOLNÝ', '', #76, .NOT_KNOWN. ) ;
#223 = MECHANICAL_CONTEXT ( 'NONE', #66, 'mechanical' ) ;
#224 = COORDINATED_UNIVERSAL_TIME_OFFSET ( 1, 0, .AHEAD. ) ;
#225 = VERTEX_POINT ( 'NONE', #184 ) ;
#226 = EDGE_CURVE ( 'NONE', #53, #193, #84, .T. ) ;
#227 = ORIENTED_EDGE ( 'NONE', *, *, #27, .F. ) ;
#228 = APPLICATION_CONTEXT ( 'configuration controlled 3d designs of mechanical parts and assemblies' ) ;
#229 = COORDINATED_UNIVERSAL_TIME_OFFSET ( 1, 0, .AHEAD. ) ;
#230 = APPROVAL_DATE_TIME ( #173, #181 ) ;
#231 = EDGE_CURVE ( 'NONE', #193, #15, #147, .T. ) ;
#232 = EDGE_LOOP ( 'NONE', ( #211, #245, #70, #227 ) ) ;
#233 = CC_DESIGN_SECURITY_CLASSIFICATION ( #183, ( #222 ) ) ;
#234 = CARTESIAN_POINT ( 'NONE',  ( 4.099999999999999645, 5.021051876504147385E-16, 160.0000000000000000 ) ) ;
#235 = CARTESIAN_POINT ( 'NONE',  ( 0.000000000000000000, 0.000000000000000000, 0.000000000000000000 ) ) ;
#236 = CYLINDRICAL_SURFACE ( 'NONE', #97, 7.000000000000000000 ) ;
#237 = DIRECTION ( 'NONE',  ( 0.000000000000000000, 0.000000000000000000, 1.000000000000000000 ) ) ;
#238 = CARTESIAN_POINT ( 'NONE',  ( -7.000000000000000000, 0.000000000000000000, 5.000000000000000000 ) ) ;
#239 = PERSON_AND_ORGANIZATION ( #4, #58 ) ;
#240 = AXIS2_PLACEMENT_3D ( 'NONE', #74, #158, #160 ) ;
#241 = AXIS2_PLACEMENT_3D ( 'NONE', #201, #26, #24 ) ;
#242 = DATE_TIME_ROLE ( 'creation_date' ) ;
#243 =( NAMED_UNIT ( * ) SI_UNIT ( $, .STERADIAN. ) SOLID_ANGLE_UNIT ( ) );
#244 = APPROVAL_STATUS ( 'not_yet_approved' ) ;
#245 = ORIENTED_EDGE ( 'NONE', *, *, #13, .T. ) ;
#246 = VECTOR ( 'NONE', #168, 1000.000000000000000 ) ;
#247 = EDGE_LOOP ( 'NONE', ( #210, #88 ) ) ;
#248 = PERSON_AND_ORGANIZATION ( #4, #58 ) ;
#249 = ADVANCED_FACE ( 'NONE', ( #67 ), #203, .T. ) ;
#250 = VERTEX_POINT ( 'NONE', #149 ) ;
#251 = AXIS2_PLACEMENT_3D ( 'NONE', #55, #144, #254 ) ;
#252 = ORIENTED_EDGE ( 'NONE', *, *, #130, .F. ) ;
#253 = AXIS2_PLACEMENT_3D ( 'NONE', #206, #109, #9 ) ;
#254 = DIRECTION ( 'NONE',  ( 1.000000000000000000, 0.000000000000000000, 0.000000000000000000 ) ) ;
#255 = FACE_OUTER_BOUND ( 'NONE', #209, .T. ) ;
ENDSEC;
END-ISO-10303-21;
