ISO-10303-21;
HEADER;
FILE_DESCRIPTION (( 'STEP AP203' ),
    '1' );
FILE_NAME ('7429.STEP',
    '2022-07-07T09:58:31',
    ( '' ),
    ( '' ),
    'SwSTEP 2.0',
    'SolidWorks 2019',
    '' );
FILE_SCHEMA (( 'CONFIG_CONTROL_DESIGN' ));
ENDSEC;

DATA;
#1 = CYLINDRICAL_SURFACE ( 'NONE', #284, 7.000000000000000000 ) ;
#2 = MECHANICAL_CONTEXT ( 'NONE', #8, 'mechanical' ) ;
#3 = ORIENTED_EDGE ( 'NONE', *, *, #59, .T. ) ;
#4 = PERSON_AND_ORGANIZATION ( #12, #50 ) ;
#5 = ORIENTED_EDGE ( 'NONE', *, *, #54, .F. ) ;
#6 = PRODUCT_DEFINITION_FORMATION_WITH_SPECIFIED_SOURCE ( 'LIBOVOLNÝ', '', #141, .NOT_KNOWN. ) ;
#7 = CARTESIAN_POINT ( 'NONE',  ( 0.000000000000000000, 0.000000000000000000, 0.000000000000000000 ) ) ;
#8 = APPLICATION_CONTEXT ( 'configuration controlled 3d designs of mechanical parts and assemblies' ) ;
#9 = CALENDAR_DATE ( 2022, 7, 7 ) ;
#10 = ADVANCED_FACE ( 'NONE', ( #94 ), #100, .F. ) ;
#11 = CIRCLE ( 'NONE', #211, 7.000000000000000000 ) ;
#12 = PERSON ( 'NEURÈENÝ', 'NEURÈENÝ', 'NEURÈENÝ', ('NEURÈENÝ'), ('NEURÈENÝ'), ('NEURÈENÝ') ) ;
#13 = COORDINATED_UNIVERSAL_TIME_OFFSET ( 1, 0, .AHEAD. ) ;
#14 = PERSON_AND_ORGANIZATION ( #12, #50 ) ;
#15 = CARTESIAN_POINT ( 'NONE',  ( 0.000000000000000000, 0.000000000000000000, 5.199999999999982414 ) ) ;
#16 = DIRECTION ( 'NONE',  ( 1.000000000000000000, 0.000000000000000000, 0.000000000000000000 ) ) ;
#17 = DIRECTION ( 'NONE',  ( -0.000000000000000000, -0.000000000000000000, -1.000000000000000000 ) ) ;
#18 = APPROVAL ( #290, 'NEURÈENÝ' ) ;
#19 = DIRECTION ( 'NONE',  ( 1.224646799147353207E-16, 1.000000000000000000, -0.000000000000000000 ) ) ;
#20 = DIRECTION ( 'NONE',  ( 0.000000000000000000, 0.000000000000000000, 1.000000000000000000 ) ) ;
#21 = VERTEX_POINT ( 'NONE', #186 ) ;
#22 = ORIENTED_EDGE ( 'NONE', *, *, #155, .T. ) ;
#23 = AXIS2_PLACEMENT_3D ( 'NONE', #136, #115, #297 ) ;
#24 = ADVANCED_FACE ( 'NONE', ( #122 ), #288, .T. ) ;
#25 = ORIENTED_EDGE ( 'NONE', *, *, #61, .F. ) ;
#26 = LOCAL_TIME ( 11, 58, 31.00000000000000000, #289 ) ;
#27 = CARTESIAN_POINT ( 'NONE',  ( 0.000000000000000000, 0.000000000000000000, 320.0000000000000000 ) ) ;
#28 = ORIENTED_EDGE ( 'NONE', *, *, #90, .F. ) ;
#29 = DIRECTION ( 'NONE',  ( 1.000000000000000000, 0.000000000000000000, 0.000000000000000000 ) ) ;
#30 = ORIENTED_EDGE ( 'NONE', *, *, #61, .T. ) ;
#31 = CYLINDRICAL_SURFACE ( 'NONE', #153, 7.000000000000000000 ) ;
#32 = AXIS2_PLACEMENT_3D ( 'NONE', #131, #133, #44 ) ;
#33 = PERSON_AND_ORGANIZATION_ROLE ( 'design_owner' ) ;
#34 = APPROVAL_PERSON_ORGANIZATION ( #201, #159, #293 ) ;
#35 = DIRECTION ( 'NONE',  ( 1.000000000000000000, 0.000000000000000000, 0.000000000000000000 ) ) ;
#36 = AXIS2_PLACEMENT_3D ( 'NONE', #110, #180, #89 ) ;
#37 = APPLICATION_CONTEXT ( 'configuration controlled 3d designs of mechanical parts and assemblies' ) ;
#38 = VECTOR ( 'NONE', #252, 1000.000000000000000 ) ;
#39 = CARTESIAN_POINT ( 'NONE',  ( 0.000000000000000000, 0.000000000000000000, 320.0000000000000000 ) ) ;
#40 = DIRECTION ( 'NONE',  ( 0.000000000000000000, 0.000000000000000000, 1.000000000000000000 ) ) ;
#41 = LINE ( 'NONE', #69, #236 ) ;
#42 = VERTEX_POINT ( 'NONE', #72 ) ;
#43 = AXIS2_PLACEMENT_3D ( 'NONE', #57, #286, #35 ) ;
#44 = DIRECTION ( 'NONE',  ( 1.000000000000000000, 0.000000000000000000, 0.000000000000000000 ) ) ;
#45 = LINE ( 'NONE', #63, #249 ) ;
#46 = VERTEX_POINT ( 'NONE', #119 ) ;
#47 = CC_DESIGN_PERSON_AND_ORGANIZATION_ASSIGNMENT ( #125, #221, ( #6 ) ) ;
#48 = CARTESIAN_POINT ( 'NONE',  ( 0.000000000000000000, 0.000000000000000000, 5.000000000000000000 ) ) ;
#49 = EDGE_LOOP ( 'NONE', ( #28, #117, #237, #164 ) ) ;
#50 = ORGANIZATION ( 'NEURÈENÝ', 'NEURÈENÝ', '' ) ;
#51 = PERSON_AND_ORGANIZATION ( #12, #50 ) ;
#52 = ORIENTED_EDGE ( 'NONE', *, *, #306, .F. ) ;
#53 = PERSON_AND_ORGANIZATION ( #12, #50 ) ;
#54 = EDGE_CURVE ( 'NONE', #46, #168, #189, .T. ) ;
#55 = CYLINDRICAL_SURFACE ( 'NONE', #250, 4.250000000000000000 ) ;
#56 = AXIS2_PLACEMENT_3D ( 'NONE', #102, #192, #305 ) ;
#57 = CARTESIAN_POINT ( 'NONE',  ( 0.000000000000000000, 0.000000000000000000, 0.000000000000000000 ) ) ;
#58 = ADVANCED_FACE ( 'NONE', ( #188 ), #1, .T. ) ;
#59 = EDGE_CURVE ( 'NONE', #68, #145, #222, .T. ) ;
#60 = DATE_AND_TIME ( #83, #26 ) ;
#61 = EDGE_CURVE ( 'NONE', #223, #21, #152, .T. ) ;
#62 = CIRCLE ( 'NONE', #295, 0.1999999999999996503 ) ;
#63 = CARTESIAN_POINT ( 'NONE',  ( 4.250000000000000000, 5.204748896376250699E-16, 320.0000000000000000 ) ) ;
#64 =( GEOMETRIC_REPRESENTATION_CONTEXT ( 3 ) GLOBAL_UNCERTAINTY_ASSIGNED_CONTEXT ( ( #66 ) ) GLOBAL_UNIT_ASSIGNED_CONTEXT ( ( #260, #243, #242 ) ) REPRESENTATION_CONTEXT ( 'NONE', 'WORKASPACE' ) );
#65 = CARTESIAN_POINT ( 'NONE',  ( -4.250000000000000000, 0.000000000000000000, 320.0000000000000000 ) ) ;
#66 = UNCERTAINTY_MEASURE_WITH_UNIT (LENGTH_MEASURE( 1.000000000000000082E-05 ), #260, 'distance_accuracy_value', 'NONE');
#67 = DIRECTION ( 'NONE',  ( -1.000000000000000000, 0.000000000000000000, 0.000000000000000000 ) ) ;
#68 = VERTEX_POINT ( 'NONE', #166 ) ;
#69 = CARTESIAN_POINT ( 'NONE',  ( 7.000000000000000000, 8.572527594031473190E-16, 5.000000000000000000 ) ) ;
#70 = ORIENTED_EDGE ( 'NONE', *, *, #98, .T. ) ;
#71 = CARTESIAN_POINT ( 'NONE',  ( 4.450000000000000178, 0.000000000000000000, 4.999999999999991118 ) ) ;
#72 = CARTESIAN_POINT ( 'NONE',  ( -4.250000000000000000, 0.000000000000000000, 5.199999999999982414 ) ) ;
#73 = EDGE_CURVE ( 'NONE', #168, #46, #199, .T. ) ;
#74 = ORIENTED_EDGE ( 'NONE', *, *, #155, .F. ) ;
#75 = PERSON_AND_ORGANIZATION ( #12, #50 ) ;
#76 = ADVANCED_FACE ( 'NONE', ( #274 ), #229, .F. ) ;
#77 = ORIENTED_EDGE ( 'NONE', *, *, #86, .F. ) ;
#78 = CC_DESIGN_APPROVAL ( #159, ( #261 ) ) ;
#79 = DIRECTION ( 'NONE',  ( 1.000000000000000000, 0.000000000000000000, 0.000000000000000000 ) ) ;
#80 = CARTESIAN_POINT ( 'NONE',  ( 0.000000000000000000, 0.000000000000000000, 320.0000000000000000 ) ) ;
#81 = FACE_OUTER_BOUND ( 'NONE', #49, .T. ) ;
#82 = SECURITY_CLASSIFICATION_LEVEL ( 'unclassified' ) ;
#83 = CALENDAR_DATE ( 2022, 7, 7 ) ;
#84 = EDGE_LOOP ( 'NONE', ( #134, #210, #169, #116 ) ) ;
#85 = DIRECTION ( 'NONE',  ( -0.000000000000000000, -0.000000000000000000, -1.000000000000000000 ) ) ;
#86 = EDGE_CURVE ( 'NONE', #215, #42, #128, .T. ) ;
#87 = LINE ( 'NONE', #65, #38 ) ;
#88 = VECTOR ( 'NONE', #265, 1000.000000000000000 ) ;
#89 = DIRECTION ( 'NONE',  ( 1.000000000000000000, 0.000000000000000000, 0.000000000000000000 ) ) ;
#90 = EDGE_CURVE ( 'NONE', #223, #215, #45, .T. ) ;
#91 = CARTESIAN_POINT ( 'NONE',  ( -4.450000000000000178, 5.449678256205721784E-16, 5.199999999999982414 ) ) ;
#92 = FACE_OUTER_BOUND ( 'NONE', #232, .T. ) ;
#93 = AXIS2_PLACEMENT_3D ( 'NONE', #269, #20, #226 ) ;
#94 = FACE_OUTER_BOUND ( 'NONE', #161, .T. ) ;
#95 = ADVANCED_FACE ( 'NONE', ( #203, #92 ), #207, .T. ) ;
#96 = CARTESIAN_POINT ( 'NONE',  ( 0.000000000000000000, 0.000000000000000000, 5.000000000000000000 ) ) ;
#97 = APPROVAL_ROLE ( '' ) ;
#98 = EDGE_CURVE ( 'NONE', #215, #168, #62, .T. ) ;
#99 = ORIENTED_EDGE ( 'NONE', *, *, #270, .T. ) ;
#100 = TOROIDAL_SURFACE ( 'NONE', #56, 4.450000000000000178, 0.2000000000000000111 ) ;
#101 = APPLICATION_PROTOCOL_DEFINITION ( 'international standard', 'config_control_design', 1994, #37 ) ;
#102 = CARTESIAN_POINT ( 'NONE',  ( 0.000000000000000000, 0.000000000000000000, 5.199999999999982414 ) ) ;
#103 = COORDINATED_UNIVERSAL_TIME_OFFSET ( 1, 0, .AHEAD. ) ;
#104 = DIRECTION ( 'NONE',  ( -1.000000000000000000, 0.000000000000000000, 0.000000000000000000 ) ) ;
#105 = CC_DESIGN_PERSON_AND_ORGANIZATION_ASSIGNMENT ( #51, #144, ( #150 ) ) ;
#106 = CC_DESIGN_APPROVAL ( #18, ( #150 ) ) ;
#107 = CALENDAR_DATE ( 2022, 7, 7 ) ;
#108 = PERSON_AND_ORGANIZATION ( #12, #50 ) ;
#109 = DIRECTION ( 'NONE',  ( -0.000000000000000000, -0.000000000000000000, -1.000000000000000000 ) ) ;
#110 = CARTESIAN_POINT ( 'NONE',  ( 0.000000000000000000, 0.000000000000000000, 5.199999999999982414 ) ) ;
#111 = CLOSED_SHELL ( 'NONE', ( #135, #146, #58, #273, #95, #76, #279, #24, #10 ) ) ;
#112 = DIRECTION ( 'NONE',  ( 1.000000000000000000, 0.000000000000000000, 0.000000000000000000 ) ) ;
#113 = CIRCLE ( 'NONE', #142, 7.000000000000000000 ) ;
#114 = DIRECTION ( 'NONE',  ( -1.000000000000000000, 1.224646799147353454E-16, 0.000000000000000000 ) ) ;
#115 = DIRECTION ( 'NONE',  ( 0.000000000000000000, 0.000000000000000000, 1.000000000000000000 ) ) ;
#116 = ORIENTED_EDGE ( 'NONE', *, *, #98, .F. ) ;
#117 = ORIENTED_EDGE ( 'NONE', *, *, #137, .F. ) ;
#118 = AXIS2_PLACEMENT_3D ( 'NONE', #48, #139, #234 ) ;
#119 = CARTESIAN_POINT ( 'NONE',  ( -4.450000000000000178, 5.449678256205721784E-16, 4.999999999999991118 ) ) ;
#120 = CARTESIAN_POINT ( 'NONE',  ( 7.000000000000000000, 8.572527594031473190E-16, 5.000000000000000000 ) ) ;
#121 = ORIENTED_EDGE ( 'NONE', *, *, #270, .F. ) ;
#122 = FACE_OUTER_BOUND ( 'NONE', #213, .T. ) ;
#123 = APPROVAL_DATE_TIME ( #291, #18 ) ;
#124 = FACE_OUTER_BOUND ( 'NONE', #143, .T. ) ;
#125 = PERSON_AND_ORGANIZATION ( #12, #50 ) ;
#126 = TOROIDAL_SURFACE ( 'NONE', #36, 4.450000000000000178, 0.2000000000000000111 ) ;
#127 = PERSON_AND_ORGANIZATION_ROLE ( 'design_supplier' ) ;
#128 = CIRCLE ( 'NONE', #174, 4.250000000000000000 ) ;
#129 = PRODUCT_DEFINITION_SHAPE ( 'NONE', 'NONE',  #150 ) ;
#130 = DIRECTION ( 'NONE',  ( 0.000000000000000000, 0.000000000000000000, 1.000000000000000000 ) ) ;
#131 = CARTESIAN_POINT ( 'NONE',  ( 0.000000000000000000, 0.000000000000000000, 320.0000000000000000 ) ) ;
#132 = ADVANCED_BREP_SHAPE_REPRESENTATION ( '7429', ( #251, #219 ), #64 ) ;
#133 = DIRECTION ( 'NONE',  ( 0.000000000000000000, 0.000000000000000000, 1.000000000000000000 ) ) ;
#134 = ORIENTED_EDGE ( 'NONE', *, *, #187, .F. ) ;
#135 = ADVANCED_FACE ( 'NONE', ( #278 ), #126, .F. ) ;
#136 = CARTESIAN_POINT ( 'NONE',  ( 0.000000000000000000, 0.000000000000000000, 5.000000000000000000 ) ) ;
#137 = EDGE_CURVE ( 'NONE', #21, #223, #176, .T. ) ;
#138 = VERTEX_POINT ( 'NONE', #158 ) ;
#139 = DIRECTION ( 'NONE',  ( -0.000000000000000000, -0.000000000000000000, -1.000000000000000000 ) ) ;
#140 = LINE ( 'NONE', #235, #88 ) ;
#141 = PRODUCT ( '7429', '7429', '', ( #2 ) ) ;
#142 = AXIS2_PLACEMENT_3D ( 'NONE', #184, #299, #304 ) ;
#143 = EDGE_LOOP ( 'NONE', ( #74, #239, #259, #3 ) ) ;
#144 = PERSON_AND_ORGANIZATION_ROLE ( 'creator' ) ;
#145 = VERTEX_POINT ( 'NONE', #208 ) ;
#146 = ADVANCED_FACE ( 'NONE', ( #253 ), #272, .T. ) ;
#147 = APPROVAL_STATUS ( 'not_yet_approved' ) ;
#148 = DIRECTION ( 'NONE',  ( -1.000000000000000000, 0.000000000000000000, 0.000000000000000000 ) ) ;
#149 = EDGE_CURVE ( 'NONE', #138, #285, #113, .T. ) ;
#150 = PRODUCT_DEFINITION ( 'NEZNÁMÝ', '', #6, #258 ) ;
#151 = COORDINATED_UNIVERSAL_TIME_OFFSET ( 1, 0, .AHEAD. ) ;
#152 = CIRCLE ( 'NONE', #32, 4.250000000000000000 ) ;
#153 = AXIS2_PLACEMENT_3D ( 'NONE', #217, #264, #104 ) ;
#154 = APPROVAL_STATUS ( 'not_yet_approved' ) ;
#155 = EDGE_CURVE ( 'NONE', #285, #145, #41, .T. ) ;
#156 = CARTESIAN_POINT ( 'NONE',  ( 0.000000000000000000, 0.000000000000000000, 320.0000000000000000 ) ) ;
#157 = APPROVAL_PERSON_ORGANIZATION ( #53, #173, #193 ) ;
#158 = CARTESIAN_POINT ( 'NONE',  ( -7.000000000000000000, 0.000000000000000000, 5.000000000000000000 ) ) ;
#159 = APPROVAL ( #154, 'NEURÈENÝ' ) ;
#160 = CARTESIAN_POINT ( 'NONE',  ( 4.250000000000000000, 5.204748896376250699E-16, 320.0000000000000000 ) ) ;
#161 = EDGE_LOOP ( 'NONE', ( #277, #77, #70, #5 ) ) ;
#162 = AXIS2_PLACEMENT_3D ( 'NONE', #255, #40, #254 ) ;
#163 = DIRECTION ( 'NONE',  ( 1.000000000000000000, 0.000000000000000000, 0.000000000000000000 ) ) ;
#164 = ORIENTED_EDGE ( 'NONE', *, *, #187, .T. ) ;
#165 = CIRCLE ( 'NONE', #301, 4.250000000000000000 ) ;
#166 = CARTESIAN_POINT ( 'NONE',  ( -7.000000000000000000, 0.000000000000000000, 0.000000000000000000 ) ) ;
#167 = ORIENTED_EDGE ( 'NONE', *, *, #149, .T. ) ;
#168 = VERTEX_POINT ( 'NONE', #71 ) ;
#169 = ORIENTED_EDGE ( 'NONE', *, *, #73, .F. ) ;
#170 = COORDINATED_UNIVERSAL_TIME_OFFSET ( 1, 0, .AHEAD. ) ;
#171 = AXIS2_PLACEMENT_3D ( 'NONE', #156, #204, #302 ) ;
#172 = ORIENTED_EDGE ( 'NONE', *, *, #54, .T. ) ;
#173 = APPROVAL ( #147, 'NEURÈENÝ' ) ;
#174 = AXIS2_PLACEMENT_3D ( 'NONE', #231, #228, #16 ) ;
#175 = DIRECTION ( 'NONE',  ( -0.000000000000000000, -0.000000000000000000, -1.000000000000000000 ) ) ;
#176 = CIRCLE ( 'NONE', #171, 4.250000000000000000 ) ;
#177 = DIRECTION ( 'NONE',  ( 0.000000000000000000, 0.000000000000000000, 1.000000000000000000 ) ) ;
#178 = DATE_AND_TIME ( #107, #300 ) ;
#179 = DATE_AND_TIME ( #248, #266 ) ;
#180 = DIRECTION ( 'NONE',  ( 0.000000000000000000, 0.000000000000000000, 1.000000000000000000 ) ) ;
#181 = DIRECTION ( 'NONE',  ( 0.000000000000000000, -1.000000000000000000, 0.000000000000000000 ) ) ;
#182 = DIRECTION ( 'NONE',  ( -1.000000000000000000, 0.000000000000000000, 0.000000000000000000 ) ) ;
#183 = ORIENTED_EDGE ( 'NONE', *, *, #240, .F. ) ;
#184 = CARTESIAN_POINT ( 'NONE',  ( 0.000000000000000000, 0.000000000000000000, 5.000000000000000000 ) ) ;
#185 = CARTESIAN_POINT ( 'NONE',  ( 4.250000000000000000, 5.204748896376250699E-16, 5.199999999999982414 ) ) ;
#186 = CARTESIAN_POINT ( 'NONE',  ( -4.250000000000000000, 0.000000000000000000, 320.0000000000000000 ) ) ;
#187 = EDGE_CURVE ( 'NONE', #42, #215, #165, .T. ) ;
#188 = FACE_OUTER_BOUND ( 'NONE', #230, .T. ) ;
#189 = CIRCLE ( 'NONE', #118, 4.450000000000000178 ) ;
#190 = EDGE_LOOP ( 'NONE', ( #25, #275, #296, #257 ) ) ;
#191 = DATE_TIME_ROLE ( 'creation_date' ) ;
#192 = DIRECTION ( 'NONE',  ( 0.000000000000000000, 0.000000000000000000, 1.000000000000000000 ) ) ;
#193 = APPROVAL_ROLE ( '' ) ;
#194 = APPLICATION_PROTOCOL_DEFINITION ( 'international standard', 'config_control_design', 1994, #8 ) ;
#195 = CARTESIAN_POINT ( 'NONE',  ( 0.000000000000000000, 0.000000000000000000, 5.000000000000000000 ) ) ;
#196 = CC_DESIGN_APPROVAL ( #173, ( #6 ) ) ;
#197 = CC_DESIGN_DATE_AND_TIME_ASSIGNMENT ( #178, #246, ( #261 ) ) ;
#198 = APPROVAL_DATE_TIME ( #179, #159 ) ;
#199 = CIRCLE ( 'NONE', #241, 4.450000000000000178 ) ;
#200 = APPROVAL_PERSON_ORGANIZATION ( #75, #18, #97 ) ;
#201 = PERSON_AND_ORGANIZATION ( #12, #50 ) ;
#202 = ORIENTED_EDGE ( 'NONE', *, *, #59, .F. ) ;
#203 = FACE_BOUND ( 'NONE', #256, .T. ) ;
#204 = DIRECTION ( 'NONE',  ( 0.000000000000000000, 0.000000000000000000, 1.000000000000000000 ) ) ;
#205 = DIRECTION ( 'NONE',  ( -0.000000000000000000, -0.000000000000000000, -1.000000000000000000 ) ) ;
#206 = CIRCLE ( 'NONE', #307, 0.1999999999999996503 ) ;
#207 = PLANE ( 'NONE',  #23 ) ;
#208 = CARTESIAN_POINT ( 'NONE',  ( 7.000000000000000000, 8.572527594031473190E-16, 0.000000000000000000 ) ) ;
#209 = ORIENTED_EDGE ( 'NONE', *, *, #137, .T. ) ;
#210 = ORIENTED_EDGE ( 'NONE', *, *, #224, .T. ) ;
#211 = AXIS2_PLACEMENT_3D ( 'NONE', #195, #177, #79 ) ;
#212 = DIRECTION ( 'NONE',  ( 1.000000000000000000, 0.000000000000000000, -0.000000000000000000 ) ) ;
#213 = EDGE_LOOP ( 'NONE', ( #209, #30 ) ) ;
#214 = CC_DESIGN_DATE_AND_TIME_ASSIGNMENT ( #238, #191, ( #150 ) ) ;
#215 = VERTEX_POINT ( 'NONE', #185 ) ;
#216 = EDGE_CURVE ( 'NONE', #21, #42, #87, .T. ) ;
#217 = CARTESIAN_POINT ( 'NONE',  ( 0.000000000000000000, 0.000000000000000000, 5.000000000000000000 ) ) ;
#218 = CC_DESIGN_PERSON_AND_ORGANIZATION_ASSIGNMENT ( #14, #220, ( #261 ) ) ;
#219 = AXIS2_PLACEMENT_3D ( 'NONE', #7, #283, #29 ) ;
#220 = PERSON_AND_ORGANIZATION_ROLE ( 'classification_officer' ) ;
#221 = PERSON_AND_ORGANIZATION_ROLE ( 'creator' ) ;
#222 = CIRCLE ( 'NONE', #162, 7.000000000000000000 ) ;
#223 = VERTEX_POINT ( 'NONE', #160 ) ;
#224 = EDGE_CURVE ( 'NONE', #42, #46, #206, .T. ) ;
#225 = AXIS2_PLACEMENT_3D ( 'NONE', #39, #109, #67 ) ;
#226 = DIRECTION ( 'NONE',  ( 1.000000000000000000, 0.000000000000000000, -0.000000000000000000 ) ) ;
#227 = CARTESIAN_POINT ( 'NONE',  ( 0.000000000000000000, 0.000000000000000000, 5.000000000000000000 ) ) ;
#228 = DIRECTION ( 'NONE',  ( 0.000000000000000000, 0.000000000000000000, 1.000000000000000000 ) ) ;
#229 = PLANE ( 'NONE',  #93 ) ;
#230 = EDGE_LOOP ( 'NONE', ( #52, #22, #99, #183 ) ) ;
#231 = CARTESIAN_POINT ( 'NONE',  ( 0.000000000000000000, 0.000000000000000000, 5.199999999999982414 ) ) ;
#232 = EDGE_LOOP ( 'NONE', ( #167, #281 ) ) ;
#233 = ORIENTED_EDGE ( 'NONE', *, *, #73, .T. ) ;
#234 = DIRECTION ( 'NONE',  ( 1.000000000000000000, 0.000000000000000000, 0.000000000000000000 ) ) ;
#235 = CARTESIAN_POINT ( 'NONE',  ( -7.000000000000000000, 0.000000000000000000, 5.000000000000000000 ) ) ;
#236 = VECTOR ( 'NONE', #17, 1000.000000000000000 ) ;
#237 = ORIENTED_EDGE ( 'NONE', *, *, #216, .T. ) ;
#238 = DATE_AND_TIME ( #263, #271 ) ;
#239 = ORIENTED_EDGE ( 'NONE', *, *, #149, .F. ) ;
#240 = EDGE_CURVE ( 'NONE', #138, #68, #140, .T. ) ;
#241 = AXIS2_PLACEMENT_3D ( 'NONE', #227, #205, #163 ) ;
#242 =( NAMED_UNIT ( * ) SI_UNIT ( $, .STERADIAN. ) SOLID_ANGLE_UNIT ( ) );
#243 =( NAMED_UNIT ( * ) PLANE_ANGLE_UNIT ( ) SI_UNIT ( $, .RADIAN. ) );
#244 = CC_DESIGN_PERSON_AND_ORGANIZATION_ASSIGNMENT ( #4, #33, ( #141 ) ) ;
#245 = APPROVAL_DATE_TIME ( #60, #173 ) ;
#246 = DATE_TIME_ROLE ( 'classification_date' ) ;
#247 = CC_DESIGN_SECURITY_CLASSIFICATION ( #261, ( #6 ) ) ;
#248 = CALENDAR_DATE ( 2022, 7, 7 ) ;
#249 = VECTOR ( 'NONE', #85, 1000.000000000000000 ) ;
#250 = AXIS2_PLACEMENT_3D ( 'NONE', #27, #175, #148 ) ;
#251 = MANIFOLD_SOLID_BREP ( 'Zaoblit1', #111 ) ;
#252 = DIRECTION ( 'NONE',  ( -0.000000000000000000, -0.000000000000000000, -1.000000000000000000 ) ) ;
#253 = FACE_OUTER_BOUND ( 'NONE', #190, .T. ) ;
#254 = DIRECTION ( 'NONE',  ( 1.000000000000000000, 0.000000000000000000, 0.000000000000000000 ) ) ;
#255 = CARTESIAN_POINT ( 'NONE',  ( 0.000000000000000000, 0.000000000000000000, 0.000000000000000000 ) ) ;
#256 = EDGE_LOOP ( 'NONE', ( #233, #172 ) ) ;
#257 = ORIENTED_EDGE ( 'NONE', *, *, #216, .F. ) ;
#258 = DESIGN_CONTEXT ( 'detailed design', #37, 'design' ) ;
#259 = ORIENTED_EDGE ( 'NONE', *, *, #240, .T. ) ;
#260 =( LENGTH_UNIT ( ) NAMED_UNIT ( * ) SI_UNIT ( .MILLI., .METRE. ) );
#261 = SECURITY_CLASSIFICATION ( '', '', #82 ) ;
#262 = EDGE_LOOP ( 'NONE', ( #202, #121 ) ) ;
#263 = CALENDAR_DATE ( 2022, 7, 7 ) ;
#264 = DIRECTION ( 'NONE',  ( -0.000000000000000000, -0.000000000000000000, -1.000000000000000000 ) ) ;
#265 = DIRECTION ( 'NONE',  ( -0.000000000000000000, -0.000000000000000000, -1.000000000000000000 ) ) ;
#266 = LOCAL_TIME ( 11, 58, 31.00000000000000000, #13 ) ;
#267 = SHAPE_DEFINITION_REPRESENTATION ( #129, #132 ) ;
#268 = PRODUCT_RELATED_PRODUCT_CATEGORY ( 'detail', '', ( #141 ) ) ;
#269 = CARTESIAN_POINT ( 'NONE',  ( 0.000000000000000000, 0.000000000000000000, 0.000000000000000000 ) ) ;
#270 = EDGE_CURVE ( 'NONE', #145, #68, #287, .T. ) ;
#271 = LOCAL_TIME ( 11, 58, 31.00000000000000000, #103 ) ;
#272 = CYLINDRICAL_SURFACE ( 'NONE', #225, 4.250000000000000000 ) ;
#273 = ADVANCED_FACE ( 'NONE', ( #124 ), #31, .T. ) ;
#274 = FACE_OUTER_BOUND ( 'NONE', #262, .T. ) ;
#275 = ORIENTED_EDGE ( 'NONE', *, *, #90, .T. ) ;
#276 = CARTESIAN_POINT ( 'NONE',  ( 4.450000000000000178, 0.000000000000000000, 5.199999999999982414 ) ) ;
#277 = ORIENTED_EDGE ( 'NONE', *, *, #224, .F. ) ;
#278 = FACE_OUTER_BOUND ( 'NONE', #84, .T. ) ;
#279 = ADVANCED_FACE ( 'NONE', ( #81 ), #55, .T. ) ;
#280 = DIRECTION ( 'NONE',  ( 0.000000000000000000, 0.000000000000000000, 1.000000000000000000 ) ) ;
#281 = ORIENTED_EDGE ( 'NONE', *, *, #306, .T. ) ;
#282 = DIRECTION ( 'NONE',  ( -0.000000000000000000, -0.000000000000000000, -1.000000000000000000 ) ) ;
#283 = DIRECTION ( 'NONE',  ( 0.000000000000000000, 0.000000000000000000, 1.000000000000000000 ) ) ;
#284 = AXIS2_PLACEMENT_3D ( 'NONE', #96, #282, #182 ) ;
#285 = VERTEX_POINT ( 'NONE', #120 ) ;
#286 = DIRECTION ( 'NONE',  ( 0.000000000000000000, 0.000000000000000000, 1.000000000000000000 ) ) ;
#287 = CIRCLE ( 'NONE', #43, 7.000000000000000000 ) ;
#288 = PLANE ( 'NONE',  #294 ) ;
#289 = COORDINATED_UNIVERSAL_TIME_OFFSET ( 1, 0, .AHEAD. ) ;
#290 = APPROVAL_STATUS ( 'not_yet_approved' ) ;
#291 = DATE_AND_TIME ( #9, #292 ) ;
#292 = LOCAL_TIME ( 11, 58, 31.00000000000000000, #170 ) ;
#293 = APPROVAL_ROLE ( '' ) ;
#294 = AXIS2_PLACEMENT_3D ( 'NONE', #80, #280, #212 ) ;
#295 = AXIS2_PLACEMENT_3D ( 'NONE', #276, #181, #303 ) ;
#296 = ORIENTED_EDGE ( 'NONE', *, *, #86, .T. ) ;
#297 = DIRECTION ( 'NONE',  ( 1.000000000000000000, 0.000000000000000000, -0.000000000000000000 ) ) ;
#298 = CC_DESIGN_PERSON_AND_ORGANIZATION_ASSIGNMENT ( #108, #127, ( #6 ) ) ;
#299 = DIRECTION ( 'NONE',  ( 0.000000000000000000, 0.000000000000000000, 1.000000000000000000 ) ) ;
#300 = LOCAL_TIME ( 11, 58, 31.00000000000000000, #151 ) ;
#301 = AXIS2_PLACEMENT_3D ( 'NONE', #15, #130, #112 ) ;
#302 = DIRECTION ( 'NONE',  ( 1.000000000000000000, 0.000000000000000000, 0.000000000000000000 ) ) ;
#303 = DIRECTION ( 'NONE',  ( 0.000000000000000000, 0.000000000000000000, -1.000000000000000000 ) ) ;
#304 = DIRECTION ( 'NONE',  ( 1.000000000000000000, 0.000000000000000000, 0.000000000000000000 ) ) ;
#305 = DIRECTION ( 'NONE',  ( 1.000000000000000000, 0.000000000000000000, 0.000000000000000000 ) ) ;
#306 = EDGE_CURVE ( 'NONE', #285, #138, #11, .T. ) ;
#307 = AXIS2_PLACEMENT_3D ( 'NONE', #91, #19, #114 ) ;
ENDSEC;
END-ISO-10303-21;
