ISO-10303-21;
HEADER;
FILE_DESCRIPTION (( 'STEP AP203' ),
    '1' );
FILE_NAME ('21dc.STEP',
    '2022-07-07T09:32:48',
    ( '' ),
    ( '' ),
    'SwSTEP 2.0',
    'SolidWorks 2019',
    '' );
FILE_SCHEMA (( 'CONFIG_CONTROL_DESIGN' ));
ENDSEC;

DATA;
#1 = CARTESIAN_POINT ( 'NONE',  ( 0.000000000000000000, 0.000000000000000000, 10.00000000000000000 ) ) ;
#2 = ORIENTED_EDGE ( 'NONE', *, *, #48, .F. ) ;
#3 = ORIENTED_EDGE ( 'NONE', *, *, #136, .F. ) ;
#4 = DIRECTION ( 'NONE',  ( -1.000000000000000000, 1.224646799147353207E-16, 0.000000000000000000 ) ) ;
#5 = ADVANCED_FACE ( 'NONE', ( #21 ), #296, .F. ) ;
#6 = ORIENTED_EDGE ( 'NONE', *, *, #179, .F. ) ;
#7 = CARTESIAN_POINT ( 'NONE',  ( -12.70000000000000107, 1.555301434917138630E-15, 10.00000000000000000 ) ) ;
#8 = DIRECTION ( 'NONE',  ( 1.224646799147353207E-16, 1.000000000000000000, -0.000000000000000000 ) ) ;
#9 = CIRCLE ( 'NONE', #117, 16.00000000000000000 ) ;
#10 = AXIS2_PLACEMENT_3D ( 'NONE', #199, #13, #231 ) ;
#11 = APPROVAL_DATE_TIME ( #232, #196 ) ;
#12 = DIRECTION ( 'NONE',  ( 1.000000000000000000, 0.000000000000000000, 0.000000000000000000 ) ) ;
#13 = DIRECTION ( 'NONE',  ( 0.000000000000000000, 0.000000000000000000, 1.000000000000000000 ) ) ;
#14 = DIRECTION ( 'NONE',  ( 0.000000000000000000, 0.000000000000000000, 1.000000000000000000 ) ) ;
#15 = DIRECTION ( 'NONE',  ( 1.000000000000000000, 0.000000000000000000, 0.000000000000000000 ) ) ;
#16 = DIRECTION ( 'NONE',  ( 1.000000000000000000, 0.000000000000000000, 0.000000000000000000 ) ) ;
#17 = DATE_TIME_ROLE ( 'classification_date' ) ;
#18 = PRODUCT_RELATED_PRODUCT_CATEGORY ( 'detail', '', ( #228 ) ) ;
#19 = CIRCLE ( 'NONE', #153, 12.50000000000000000 ) ;
#20 = EDGE_CURVE ( 'NONE', #214, #266, #9, .T. ) ;
#21 = FACE_OUTER_BOUND ( 'NONE', #120, .T. ) ;
#22 = VECTOR ( 'NONE', #226, 1000.000000000000000 ) ;
#23 = CC_DESIGN_SECURITY_CLASSIFICATION ( #114, ( #107 ) ) ;
#24 = ORIENTED_EDGE ( 'NONE', *, *, #61, .T. ) ;
#25 = VERTEX_POINT ( 'NONE', #211 ) ;
#26 = VERTEX_POINT ( 'NONE', #116 ) ;
#27 = CARTESIAN_POINT ( 'NONE',  ( 0.000000000000000000, 0.000000000000000000, 10.20000000000000107 ) ) ;
#28 = FACE_OUTER_BOUND ( 'NONE', #164, .T. ) ;
#29 = AXIS2_PLACEMENT_3D ( 'NONE', #283, #69, #146 ) ;
#30 = APPLICATION_PROTOCOL_DEFINITION ( 'international standard', 'config_control_design', 1994, #122 ) ;
#31 = CALENDAR_DATE ( 2022, 7, 7 ) ;
#32 =( NAMED_UNIT ( * ) PLANE_ANGLE_UNIT ( ) SI_UNIT ( $, .RADIAN. ) );
#33 = ADVANCED_FACE ( 'NONE', ( #216 ), #168, .T. ) ;
#34 = DIRECTION ( 'NONE',  ( 1.000000000000000000, 0.000000000000000000, 0.000000000000000000 ) ) ;
#35 = DIRECTION ( 'NONE',  ( 0.000000000000000000, 0.000000000000000000, -1.000000000000000000 ) ) ;
#36 = DIRECTION ( 'NONE',  ( -0.000000000000000000, -0.000000000000000000, -1.000000000000000000 ) ) ;
#37 = DATE_AND_TIME ( #60, #298 ) ;
#38 = CYLINDRICAL_SURFACE ( 'NONE', #304, 12.50000000000000000 ) ;
#39 = DIRECTION ( 'NONE',  ( -0.000000000000000000, -0.000000000000000000, -1.000000000000000000 ) ) ;
#40 = VECTOR ( 'NONE', #176, 1000.000000000000000 ) ;
#41 = EDGE_CURVE ( 'NONE', #70, #284, #237, .T. ) ;
#42 = ADVANCED_FACE ( 'NONE', ( #28 ), #144, .T. ) ;
#43 = ORIENTED_EDGE ( 'NONE', *, *, #41, .T. ) ;
#44 = EDGE_LOOP ( 'NONE', ( #191, #100, #305, #123 ) ) ;
#45 = ORIENTED_EDGE ( 'NONE', *, *, #142, .F. ) ;
#46 = CIRCLE ( 'NONE', #101, 16.00000000000000000 ) ;
#47 = DIRECTION ( 'NONE',  ( 0.000000000000000000, 0.000000000000000000, 1.000000000000000000 ) ) ;
#48 = EDGE_CURVE ( 'NONE', #266, #214, #230, .T. ) ;
#49 = EDGE_LOOP ( 'NONE', ( #145, #6, #268, #43 ) ) ;
#50 = DIRECTION ( 'NONE',  ( -0.000000000000000000, -0.000000000000000000, -1.000000000000000000 ) ) ;
#51 = APPROVAL_PERSON_ORGANIZATION ( #77, #302, #149 ) ;
#52 = CARTESIAN_POINT ( 'NONE',  ( 0.000000000000000000, 0.000000000000000000, 110.0000000000000000 ) ) ;
#53 = EDGE_CURVE ( 'NONE', #26, #188, #250, .T. ) ;
#54 = COORDINATED_UNIVERSAL_TIME_OFFSET ( 1, 0, .AHEAD. ) ;
#55 = APPLICATION_CONTEXT ( 'configuration controlled 3d designs of mechanical parts and assemblies' ) ;
#56 =( NAMED_UNIT ( * ) SI_UNIT ( $, .STERADIAN. ) SOLID_ANGLE_UNIT ( ) );
#57 = DIRECTION ( 'NONE',  ( -1.000000000000000000, 0.000000000000000000, 0.000000000000000000 ) ) ;
#58 = PERSON_AND_ORGANIZATION ( #267, #269 ) ;
#59 = AXIS2_PLACEMENT_3D ( 'NONE', #135, #182, #35 ) ;
#60 = CALENDAR_DATE ( 2022, 7, 7 ) ;
#61 = EDGE_CURVE ( 'NONE', #26, #284, #251, .T. ) ;
#62 = CARTESIAN_POINT ( 'NONE',  ( 0.000000000000000000, 0.000000000000000000, 110.0000000000000000 ) ) ;
#63 = DIRECTION ( 'NONE',  ( 1.000000000000000000, 0.000000000000000000, 0.000000000000000000 ) ) ;
#64 = CARTESIAN_POINT ( 'NONE',  ( -12.50000000000000000, 0.000000000000000000, 110.0000000000000000 ) ) ;
#65 = AXIS2_PLACEMENT_3D ( 'NONE', #52, #290, #197 ) ;
#66 = AXIS2_PLACEMENT_3D ( 'NONE', #68, #161, #260 ) ;
#67 = LOCAL_TIME ( 11, 32, 48.00000000000000000, #54 ) ;
#68 = CARTESIAN_POINT ( 'NONE',  ( 0.000000000000000000, 0.000000000000000000, 0.000000000000000000 ) ) ;
#69 = DIRECTION ( 'NONE',  ( 0.000000000000000000, 0.000000000000000000, 1.000000000000000000 ) ) ;
#70 = VERTEX_POINT ( 'NONE', #273 ) ;
#71 = CC_DESIGN_PERSON_AND_ORGANIZATION_ASSIGNMENT ( #131, #88, ( #114 ) ) ;
#72 = ORIENTED_EDGE ( 'NONE', *, *, #294, .T. ) ;
#73 = AXIS2_PLACEMENT_3D ( 'NONE', #86, #110, #207 ) ;
#74 = CIRCLE ( 'NONE', #129, 12.70000000000000107 ) ;
#75 = ORIENTED_EDGE ( 'NONE', *, *, #294, .F. ) ;
#76 = FACE_BOUND ( 'NONE', #263, .T. ) ;
#77 = PERSON_AND_ORGANIZATION ( #267, #269 ) ;
#78 = CLOSED_SHELL ( 'NONE', ( #126, #278, #79, #33, #307, #258, #115, #42, #5 ) ) ;
#79 = ADVANCED_FACE ( 'NONE', ( #180 ), #178, .T. ) ;
#80 = DIRECTION ( 'NONE',  ( 1.000000000000000000, 0.000000000000000000, -0.000000000000000000 ) ) ;
#81 = CARTESIAN_POINT ( 'NONE',  ( -16.00000000000000000, 0.000000000000000000, 10.00000000000000000 ) ) ;
#82 = PERSON_AND_ORGANIZATION ( #267, #269 ) ;
#83 = DIRECTION ( 'NONE',  ( -0.000000000000000000, -0.000000000000000000, -1.000000000000000000 ) ) ;
#84 = AXIS2_PLACEMENT_3D ( 'NONE', #270, #102, #80 ) ;
#85 = CIRCLE ( 'NONE', #259, 12.50000000000000000 ) ;
#86 = CARTESIAN_POINT ( 'NONE',  ( 0.000000000000000000, 0.000000000000000000, 10.20000000000000107 ) ) ;
#87 = CARTESIAN_POINT ( 'NONE',  ( 0.000000000000000000, 0.000000000000000000, 110.0000000000000000 ) ) ;
#88 = PERSON_AND_ORGANIZATION_ROLE ( 'classification_officer' ) ;
#89 = LINE ( 'NONE', #64, #40 ) ;
#90 = PERSON_AND_ORGANIZATION_ROLE ( 'design_supplier' ) ;
#91 = EDGE_CURVE ( 'NONE', #25, #266, #158, .T. ) ;
#92 = LOCAL_TIME ( 11, 32, 48.00000000000000000, #175 ) ;
#93 = DIRECTION ( 'NONE',  ( 0.000000000000000000, 0.000000000000000000, 1.000000000000000000 ) ) ;
#94 = EDGE_LOOP ( 'NONE', ( #143, #2 ) ) ;
#95 = ORIENTED_EDGE ( 'NONE', *, *, #262, .T. ) ;
#96 = ORIENTED_EDGE ( 'NONE', *, *, #53, .F. ) ;
#97 = APPROVAL ( #206, 'NEURÈENÝ' ) ;
#98 = DIRECTION ( 'NONE',  ( -1.000000000000000000, 0.000000000000000000, 0.000000000000000000 ) ) ;
#99 = ADVANCED_BREP_SHAPE_REPRESENTATION ( '21dc', ( #195, #274 ), #280 ) ;
#100 = ORIENTED_EDGE ( 'NONE', *, *, #91, .T. ) ;
#101 = AXIS2_PLACEMENT_3D ( 'NONE', #201, #297, #34 ) ;
#102 = DIRECTION ( 'NONE',  ( 0.000000000000000000, 0.000000000000000000, 1.000000000000000000 ) ) ;
#103 = CARTESIAN_POINT ( 'NONE',  ( 0.000000000000000000, 0.000000000000000000, 10.00000000000000000 ) ) ;
#104 = DIRECTION ( 'NONE',  ( 1.000000000000000000, 0.000000000000000000, 0.000000000000000000 ) ) ;
#105 = AXIS2_PLACEMENT_3D ( 'NONE', #111, #39, #174 ) ;
#106 = FACE_OUTER_BOUND ( 'NONE', #243, .T. ) ;
#107 = PRODUCT_DEFINITION_FORMATION_WITH_SPECIFIED_SOURCE ( 'LIBOVOLNÝ', '', #228, .NOT_KNOWN. ) ;
#108 = FACE_OUTER_BOUND ( 'NONE', #189, .T. ) ;
#109 = CARTESIAN_POINT ( 'NONE',  ( 12.50000000000000000, 1.530808498934191521E-15, 110.0000000000000000 ) ) ;
#110 = DIRECTION ( 'NONE',  ( 0.000000000000000000, 0.000000000000000000, 1.000000000000000000 ) ) ;
#111 = CARTESIAN_POINT ( 'NONE',  ( 0.000000000000000000, 0.000000000000000000, 10.00000000000000000 ) ) ;
#112 = DIRECTION ( 'NONE',  ( -0.000000000000000000, -0.000000000000000000, -1.000000000000000000 ) ) ;
#113 = PERSON_AND_ORGANIZATION_ROLE ( 'creator' ) ;
#114 = SECURITY_CLASSIFICATION ( '', '', #256 ) ;
#115 = ADVANCED_FACE ( 'NONE', ( #152 ), #38, .T. ) ;
#116 = CARTESIAN_POINT ( 'NONE',  ( 12.50000000000000000, 1.530808498934191521E-15, 110.0000000000000000 ) ) ;
#117 = AXIS2_PLACEMENT_3D ( 'NONE', #286, #47, #218 ) ;
#118 = AXIS2_PLACEMENT_3D ( 'NONE', #293, #8, #4 ) ;
#119 = ORIENTED_EDGE ( 'NONE', *, *, #91, .F. ) ;
#120 = EDGE_LOOP ( 'NONE', ( #163, #45, #121, #75 ) ) ;
#121 = ORIENTED_EDGE ( 'NONE', *, *, #235, .T. ) ;
#122 = APPLICATION_CONTEXT ( 'configuration controlled 3d designs of mechanical parts and assemblies' ) ;
#123 = ORIENTED_EDGE ( 'NONE', *, *, #151, .F. ) ;
#124 = CARTESIAN_POINT ( 'NONE',  ( 0.000000000000000000, 0.000000000000000000, 110.0000000000000000 ) ) ;
#125 = DATE_AND_TIME ( #31, #210 ) ;
#126 = ADVANCED_FACE ( 'NONE', ( #275 ), #127, .F. ) ;
#127 = TOROIDAL_SURFACE ( 'NONE', #73, 12.70000000000000107, 0.2000000000000000111 ) ;
#128 = CARTESIAN_POINT ( 'NONE',  ( 0.000000000000000000, 0.000000000000000000, 0.000000000000000000 ) ) ;
#129 = AXIS2_PLACEMENT_3D ( 'NONE', #303, #83, #16 ) ;
#130 = CARTESIAN_POINT ( 'NONE',  ( 0.000000000000000000, 0.000000000000000000, 0.000000000000000000 ) ) ;
#131 = PERSON_AND_ORGANIZATION ( #267, #269 ) ;
#132 = DIRECTION ( 'NONE',  ( 1.000000000000000000, 0.000000000000000000, -0.000000000000000000 ) ) ;
#133 = COORDINATED_UNIVERSAL_TIME_OFFSET ( 1, 0, .AHEAD. ) ;
#134 = DIRECTION ( 'NONE',  ( -0.000000000000000000, -0.000000000000000000, -1.000000000000000000 ) ) ;
#135 = CARTESIAN_POINT ( 'NONE',  ( 12.70000000000000107, 0.000000000000000000, 10.20000000000000107 ) ) ;
#136 = EDGE_CURVE ( 'NONE', #281, #265, #74, .T. ) ;
#137 = DATE_AND_TIME ( #203, #92 ) ;
#138 = EDGE_CURVE ( 'NONE', #236, #25, #160, .T. ) ;
#139 = UNCERTAINTY_MEASURE_WITH_UNIT (LENGTH_MEASURE( 1.000000000000000082E-05 ), #219, 'distance_accuracy_value', 'NONE');
#140 = ORIENTED_EDGE ( 'NONE', *, *, #53, .T. ) ;
#141 = ORIENTED_EDGE ( 'NONE', *, *, #136, .T. ) ;
#142 = EDGE_CURVE ( 'NONE', #284, #70, #19, .T. ) ;
#143 = ORIENTED_EDGE ( 'NONE', *, *, #20, .F. ) ;
#144 = PLANE ( 'NONE',  #165 ) ;
#145 = ORIENTED_EDGE ( 'NONE', *, *, #61, .F. ) ;
#146 = DIRECTION ( 'NONE',  ( 1.000000000000000000, 0.000000000000000000, 0.000000000000000000 ) ) ;
#147 = CC_DESIGN_PERSON_AND_ORGANIZATION_ASSIGNMENT ( #200, #90, ( #107 ) ) ;
#148 = PERSON_AND_ORGANIZATION_ROLE ( 'design_owner' ) ;
#149 = APPROVAL_ROLE ( '' ) ;
#150 = PLANE ( 'NONE',  #84 ) ;
#151 = EDGE_CURVE ( 'NONE', #236, #214, #279, .T. ) ;
#152 = FACE_OUTER_BOUND ( 'NONE', #49, .T. ) ;
#153 = AXIS2_PLACEMENT_3D ( 'NONE', #205, #276, #249 ) ;
#154 = PLANE ( 'NONE',  #257 ) ;
#155 = CALENDAR_DATE ( 2022, 7, 7 ) ;
#156 = DIRECTION ( 'NONE',  ( 0.000000000000000000, 0.000000000000000000, 1.000000000000000000 ) ) ;
#157 = APPROVAL_STATUS ( 'not_yet_approved' ) ;
#158 = LINE ( 'NONE', #254, #22 ) ;
#159 = COORDINATED_UNIVERSAL_TIME_OFFSET ( 1, 0, .AHEAD. ) ;
#160 = CIRCLE ( 'NONE', #10, 16.00000000000000000 ) ;
#161 = DIRECTION ( 'NONE',  ( 0.000000000000000000, 0.000000000000000000, 1.000000000000000000 ) ) ;
#162 = ORIENTED_EDGE ( 'NONE', *, *, #138, .F. ) ;
#163 = ORIENTED_EDGE ( 'NONE', *, *, #289, .F. ) ;
#164 = EDGE_LOOP ( 'NONE', ( #167, #140 ) ) ;
#165 = AXIS2_PLACEMENT_3D ( 'NONE', #124, #93, #185 ) ;
#166 = DIRECTION ( 'NONE',  ( 1.000000000000000000, 0.000000000000000000, 0.000000000000000000 ) ) ;
#167 = ORIENTED_EDGE ( 'NONE', *, *, #179, .T. ) ;
#168 = CYLINDRICAL_SURFACE ( 'NONE', #222, 16.00000000000000000 ) ;
#169 = APPROVAL_STATUS ( 'not_yet_approved' ) ;
#170 = APPROVAL_PERSON_ORGANIZATION ( #58, #196, #181 ) ;
#171 = CARTESIAN_POINT ( 'NONE',  ( 16.00000000000000000, 1.959434878635765131E-15, 0.000000000000000000 ) ) ;
#172 = CARTESIAN_POINT ( 'NONE',  ( 12.50000000000000000, 1.530808498934191521E-15, 10.20000000000000107 ) ) ;
#173 = CC_DESIGN_PERSON_AND_ORGANIZATION_ASSIGNMENT ( #194, #148, ( #228 ) ) ;
#174 = DIRECTION ( 'NONE',  ( -1.000000000000000000, 0.000000000000000000, 0.000000000000000000 ) ) ;
#175 = COORDINATED_UNIVERSAL_TIME_OFFSET ( 1, 0, .AHEAD. ) ;
#176 = DIRECTION ( 'NONE',  ( -0.000000000000000000, -0.000000000000000000, -1.000000000000000000 ) ) ;
#177 = APPROVAL_DATE_TIME ( #301, #97 ) ;
#178 = CYLINDRICAL_SURFACE ( 'NONE', #105, 16.00000000000000000 ) ;
#179 = EDGE_CURVE ( 'NONE', #188, #26, #85, .T. ) ;
#180 = FACE_OUTER_BOUND ( 'NONE', #44, .T. ) ;
#181 = APPROVAL_ROLE ( '' ) ;
#182 = DIRECTION ( 'NONE',  ( 0.000000000000000000, -1.000000000000000000, 0.000000000000000000 ) ) ;
#183 = PRODUCT_DEFINITION ( 'NEZNÁMÝ', '', #107, #186 ) ;
#184 = AXIS2_PLACEMENT_3D ( 'NONE', #27, #242, #166 ) ;
#185 = DIRECTION ( 'NONE',  ( 1.000000000000000000, 0.000000000000000000, -0.000000000000000000 ) ) ;
#186 = DESIGN_CONTEXT ( 'detailed design', #122, 'design' ) ;
#187 = EDGE_LOOP ( 'NONE', ( #119, #162, #215, #306 ) ) ;
#188 = VERTEX_POINT ( 'NONE', #295 ) ;
#189 = EDGE_LOOP ( 'NONE', ( #96, #24, #192, #282 ) ) ;
#190 = CIRCLE ( 'NONE', #59, 0.2000000000000005107 ) ;
#191 = ORIENTED_EDGE ( 'NONE', *, *, #262, .F. ) ;
#192 = ORIENTED_EDGE ( 'NONE', *, *, #142, .T. ) ;
#193 = APPLICATION_PROTOCOL_DEFINITION ( 'international standard', 'config_control_design', 1994, #55 ) ;
#194 = PERSON_AND_ORGANIZATION ( #267, #269 ) ;
#195 = MANIFOLD_SOLID_BREP ( 'Zaoblit1', #78 ) ;
#196 = APPROVAL ( #157, 'NEURÈENÝ' ) ;
#197 = DIRECTION ( 'NONE',  ( -1.000000000000000000, 0.000000000000000000, 0.000000000000000000 ) ) ;
#198 = CYLINDRICAL_SURFACE ( 'NONE', #65, 12.50000000000000000 ) ;
#199 = CARTESIAN_POINT ( 'NONE',  ( 0.000000000000000000, 0.000000000000000000, 10.00000000000000000 ) ) ;
#200 = PERSON_AND_ORGANIZATION ( #267, #269 ) ;
#201 = CARTESIAN_POINT ( 'NONE',  ( 0.000000000000000000, 0.000000000000000000, 10.00000000000000000 ) ) ;
#202 = CC_DESIGN_PERSON_AND_ORGANIZATION_ASSIGNMENT ( #82, #272, ( #183 ) ) ;
#203 = CALENDAR_DATE ( 2022, 7, 7 ) ;
#204 = CC_DESIGN_APPROVAL ( #302, ( #183 ) ) ;
#205 = CARTESIAN_POINT ( 'NONE',  ( 0.000000000000000000, 0.000000000000000000, 10.20000000000000107 ) ) ;
#206 = APPROVAL_STATUS ( 'not_yet_approved' ) ;
#207 = DIRECTION ( 'NONE',  ( 1.000000000000000000, 0.000000000000000000, 0.000000000000000000 ) ) ;
#208 = SHAPE_DEFINITION_REPRESENTATION ( #252, #99 ) ;
#209 = CC_DESIGN_DATE_AND_TIME_ASSIGNMENT ( #37, #17, ( #114 ) ) ;
#210 = LOCAL_TIME ( 11, 32, 48.00000000000000000, #246 ) ;
#211 = CARTESIAN_POINT ( 'NONE',  ( 16.00000000000000000, 1.959434878635765131E-15, 10.00000000000000000 ) ) ;
#212 = AXIS2_PLACEMENT_3D ( 'NONE', #87, #225, #15 ) ;
#213 = CIRCLE ( 'NONE', #118, 0.2000000000000005107 ) ;
#214 = VERTEX_POINT ( 'NONE', #255 ) ;
#215 = ORIENTED_EDGE ( 'NONE', *, *, #151, .T. ) ;
#216 = FACE_OUTER_BOUND ( 'NONE', #187, .T. ) ;
#217 = EDGE_CURVE ( 'NONE', #188, #70, #89, .T. ) ;
#218 = DIRECTION ( 'NONE',  ( 1.000000000000000000, 0.000000000000000000, 0.000000000000000000 ) ) ;
#219 =( LENGTH_UNIT ( ) NAMED_UNIT ( * ) SI_UNIT ( .MILLI., .METRE. ) );
#220 = EDGE_LOOP ( 'NONE', ( #241, #239, #3, #261 ) ) ;
#221 = APPROVAL_DATE_TIME ( #125, #302 ) ;
#222 = AXIS2_PLACEMENT_3D ( 'NONE', #1, #244, #98 ) ;
#223 = CIRCLE ( 'NONE', #234, 12.70000000000000107 ) ;
#224 = DIRECTION ( 'NONE',  ( 0.000000000000000000, 0.000000000000000000, 1.000000000000000000 ) ) ;
#225 = DIRECTION ( 'NONE',  ( 0.000000000000000000, 0.000000000000000000, 1.000000000000000000 ) ) ;
#226 = DIRECTION ( 'NONE',  ( -0.000000000000000000, -0.000000000000000000, -1.000000000000000000 ) ) ;
#227 = APPROVAL_ROLE ( '' ) ;
#228 = PRODUCT ( '21dc', '21dc', '', ( #288 ) ) ;
#229 = CARTESIAN_POINT ( 'NONE',  ( 0.000000000000000000, 0.000000000000000000, 110.0000000000000000 ) ) ;
#230 = CIRCLE ( 'NONE', #66, 16.00000000000000000 ) ;
#231 = DIRECTION ( 'NONE',  ( 1.000000000000000000, 0.000000000000000000, 0.000000000000000000 ) ) ;
#232 = DATE_AND_TIME ( #248, #67 ) ;
#233 = CC_DESIGN_PERSON_AND_ORGANIZATION_ASSIGNMENT ( #277, #113, ( #107 ) ) ;
#234 = AXIS2_PLACEMENT_3D ( 'NONE', #103, #50, #104 ) ;
#235 = EDGE_CURVE ( 'NONE', #284, #281, #190, .T. ) ;
#236 = VERTEX_POINT ( 'NONE', #81 ) ;
#237 = CIRCLE ( 'NONE', #184, 12.50000000000000000 ) ;
#238 = CC_DESIGN_APPROVAL ( #196, ( #107 ) ) ;
#239 = ORIENTED_EDGE ( 'NONE', *, *, #289, .T. ) ;
#240 = CC_DESIGN_DATE_AND_TIME_ASSIGNMENT ( #137, #253, ( #183 ) ) ;
#241 = ORIENTED_EDGE ( 'NONE', *, *, #41, .F. ) ;
#242 = DIRECTION ( 'NONE',  ( 0.000000000000000000, 0.000000000000000000, 1.000000000000000000 ) ) ;
#243 = EDGE_LOOP ( 'NONE', ( #287, #95 ) ) ;
#244 = DIRECTION ( 'NONE',  ( -0.000000000000000000, -0.000000000000000000, -1.000000000000000000 ) ) ;
#245 = CC_DESIGN_APPROVAL ( #97, ( #114 ) ) ;
#246 = COORDINATED_UNIVERSAL_TIME_OFFSET ( 1, 0, .AHEAD. ) ;
#247 = CARTESIAN_POINT ( 'NONE',  ( 12.70000000000000107, 0.000000000000000000, 10.00000000000000000 ) ) ;
#248 = CALENDAR_DATE ( 2022, 7, 7 ) ;
#249 = DIRECTION ( 'NONE',  ( 1.000000000000000000, 0.000000000000000000, 0.000000000000000000 ) ) ;
#250 = CIRCLE ( 'NONE', #212, 12.50000000000000000 ) ;
#251 = LINE ( 'NONE', #109, #291 ) ;
#252 = PRODUCT_DEFINITION_SHAPE ( 'NONE', 'NONE',  #183 ) ;
#253 = DATE_TIME_ROLE ( 'creation_date' ) ;
#254 = CARTESIAN_POINT ( 'NONE',  ( 16.00000000000000000, 1.959434878635765131E-15, 10.00000000000000000 ) ) ;
#255 = CARTESIAN_POINT ( 'NONE',  ( -16.00000000000000000, 0.000000000000000000, 0.000000000000000000 ) ) ;
#256 = SECURITY_CLASSIFICATION_LEVEL ( 'unclassified' ) ;
#257 = AXIS2_PLACEMENT_3D ( 'NONE', #130, #156, #132 ) ;
#258 = ADVANCED_FACE ( 'NONE', ( #271 ), #154, .F. ) ;
#259 = AXIS2_PLACEMENT_3D ( 'NONE', #62, #14, #63 ) ;
#260 = DIRECTION ( 'NONE',  ( 1.000000000000000000, 0.000000000000000000, 0.000000000000000000 ) ) ;
#261 = ORIENTED_EDGE ( 'NONE', *, *, #235, .F. ) ;
#262 = EDGE_CURVE ( 'NONE', #25, #236, #46, .T. ) ;
#263 = EDGE_LOOP ( 'NONE', ( #141, #72 ) ) ;
#264 = APPROVAL_PERSON_ORGANIZATION ( #299, #97, #227 ) ;
#265 = VERTEX_POINT ( 'NONE', #7 ) ;
#266 = VERTEX_POINT ( 'NONE', #171 ) ;
#267 = PERSON ( 'NEURÈENÝ', 'NEURÈENÝ', 'NEURÈENÝ', ('NEURÈENÝ'), ('NEURÈENÝ'), ('NEURÈENÝ') ) ;
#268 = ORIENTED_EDGE ( 'NONE', *, *, #217, .T. ) ;
#269 = ORGANIZATION ( 'NEURÈENÝ', 'NEURÈENÝ', '' ) ;
#270 = CARTESIAN_POINT ( 'NONE',  ( 0.000000000000000000, 0.000000000000000000, 10.00000000000000000 ) ) ;
#271 = FACE_OUTER_BOUND ( 'NONE', #94, .T. ) ;
#272 = PERSON_AND_ORGANIZATION_ROLE ( 'creator' ) ;
#273 = CARTESIAN_POINT ( 'NONE',  ( -12.50000000000000000, 0.000000000000000000, 10.20000000000000107 ) ) ;
#274 = AXIS2_PLACEMENT_3D ( 'NONE', #128, #224, #12 ) ;
#275 = FACE_OUTER_BOUND ( 'NONE', #220, .T. ) ;
#276 = DIRECTION ( 'NONE',  ( 0.000000000000000000, 0.000000000000000000, 1.000000000000000000 ) ) ;
#277 = PERSON_AND_ORGANIZATION ( #267, #269 ) ;
#278 = ADVANCED_FACE ( 'NONE', ( #108 ), #198, .T. ) ;
#279 = LINE ( 'NONE', #300, #285 ) ;
#280 =( GEOMETRIC_REPRESENTATION_CONTEXT ( 3 ) GLOBAL_UNCERTAINTY_ASSIGNED_CONTEXT ( ( #139 ) ) GLOBAL_UNIT_ASSIGNED_CONTEXT ( ( #219, #32, #56 ) ) REPRESENTATION_CONTEXT ( 'NONE', 'WORKASPACE' ) );
#281 = VERTEX_POINT ( 'NONE', #247 ) ;
#282 = ORIENTED_EDGE ( 'NONE', *, *, #217, .F. ) ;
#283 = CARTESIAN_POINT ( 'NONE',  ( 0.000000000000000000, 0.000000000000000000, 10.20000000000000107 ) ) ;
#284 = VERTEX_POINT ( 'NONE', #172 ) ;
#285 = VECTOR ( 'NONE', #36, 1000.000000000000000 ) ;
#286 = CARTESIAN_POINT ( 'NONE',  ( 0.000000000000000000, 0.000000000000000000, 0.000000000000000000 ) ) ;
#287 = ORIENTED_EDGE ( 'NONE', *, *, #138, .T. ) ;
#288 = MECHANICAL_CONTEXT ( 'NONE', #55, 'mechanical' ) ;
#289 = EDGE_CURVE ( 'NONE', #70, #265, #213, .T. ) ;
#290 = DIRECTION ( 'NONE',  ( -0.000000000000000000, -0.000000000000000000, -1.000000000000000000 ) ) ;
#291 = VECTOR ( 'NONE', #134, 1000.000000000000000 ) ;
#292 = LOCAL_TIME ( 11, 32, 48.00000000000000000, #159 ) ;
#293 = CARTESIAN_POINT ( 'NONE',  ( -12.70000000000000107, 1.555301434917138630E-15, 10.20000000000000107 ) ) ;
#294 = EDGE_CURVE ( 'NONE', #265, #281, #223, .T. ) ;
#295 = CARTESIAN_POINT ( 'NONE',  ( -12.50000000000000000, 0.000000000000000000, 110.0000000000000000 ) ) ;
#296 = TOROIDAL_SURFACE ( 'NONE', #29, 12.70000000000000107, 0.2000000000000000111 ) ;
#297 = DIRECTION ( 'NONE',  ( 0.000000000000000000, 0.000000000000000000, 1.000000000000000000 ) ) ;
#298 = LOCAL_TIME ( 11, 32, 48.00000000000000000, #133 ) ;
#299 = PERSON_AND_ORGANIZATION ( #267, #269 ) ;
#300 = CARTESIAN_POINT ( 'NONE',  ( -16.00000000000000000, 0.000000000000000000, 10.00000000000000000 ) ) ;
#301 = DATE_AND_TIME ( #155, #292 ) ;
#302 = APPROVAL ( #169, 'NEURÈENÝ' ) ;
#303 = CARTESIAN_POINT ( 'NONE',  ( 0.000000000000000000, 0.000000000000000000, 10.00000000000000000 ) ) ;
#304 = AXIS2_PLACEMENT_3D ( 'NONE', #229, #112, #57 ) ;
#305 = ORIENTED_EDGE ( 'NONE', *, *, #48, .T. ) ;
#306 = ORIENTED_EDGE ( 'NONE', *, *, #20, .T. ) ;
#307 = ADVANCED_FACE ( 'NONE', ( #76, #106 ), #150, .T. ) ;
ENDSEC;
END-ISO-10303-21;
