ISO-10303-21;
HEADER;
FILE_DESCRIPTION (( 'STEP AP203' ),
    '1' );
FILE_NAME ('dca7.STEP',
    '2023-02-12T12:06:56',
    ( '' ),
    ( '' ),
    'SwSTEP 2.0',
    'SolidWorks 2019',
    '' );
FILE_SCHEMA (( 'CONFIG_CONTROL_DESIGN' ));
ENDSEC;

DATA;
#1 = APPLICATION_PROTOCOL_DEFINITION ( 'international standard', 'config_control_design', 1994, #186 ) ;
#2 = CARTESIAN_POINT ( 'NONE',  ( 3.250000000000000444, 3.980102097228898231E-16, 630.0000000000000000 ) ) ;
#3 = CARTESIAN_POINT ( 'NONE',  ( -6.000000000000000888, 0.000000000000000000, 5.000000000000000000 ) ) ;
#4 = EDGE_CURVE ( 'NONE', #108, #38, #19, .T. ) ;
#5 = AXIS2_PLACEMENT_3D ( 'NONE', #45, #129, #210 ) ;
#6 = DESIGN_CONTEXT ( 'detailed design', #186, 'design' ) ;
#7 = DIRECTION ( 'NONE',  ( 1.000000000000000000, 0.000000000000000000, 0.000000000000000000 ) ) ;
#8 = COORDINATED_UNIVERSAL_TIME_OFFSET ( 1, 0, .AHEAD. ) ;
#9 = CYLINDRICAL_SURFACE ( 'NONE', #196, 3.250000000000000444 ) ;
#10 = DIRECTION ( 'NONE',  ( -0.000000000000000000, -0.000000000000000000, -1.000000000000000000 ) ) ;
#11 = APPROVAL_DATE_TIME ( #227, #112 ) ;
#12 = EDGE_LOOP ( 'NONE', ( #198, #199 ) ) ;
#13 = CYLINDRICAL_SURFACE ( 'NONE', #74, 6.000000000000000888 ) ;
#14 = CARTESIAN_POINT ( 'NONE',  ( -3.250000000000000444, 0.000000000000000000, 630.0000000000000000 ) ) ;
#15 = AXIS2_PLACEMENT_3D ( 'NONE', #102, #83, #239 ) ;
#16 = APPROVAL_ROLE ( '' ) ;
#17 = CC_DESIGN_PERSON_AND_ORGANIZATION_ASSIGNMENT ( #171, #231, ( #215 ) ) ;
#18 = EDGE_LOOP ( 'NONE', ( #37, #57, #216, #96 ) ) ;
#19 = LINE ( 'NONE', #79, #137 ) ;
#20 = APPROVAL ( #142, 'NEURÈENÝ' ) ;
#21 = PRODUCT_RELATED_PRODUCT_CATEGORY ( 'detail', '', ( #118 ) ) ;
#22 = DIRECTION ( 'NONE',  ( -0.000000000000000000, -0.000000000000000000, -1.000000000000000000 ) ) ;
#23 = DIRECTION ( 'NONE',  ( 1.000000000000000000, 0.000000000000000000, 0.000000000000000000 ) ) ;
#24 = CIRCLE ( 'NONE', #202, 6.000000000000000888 ) ;
#25 = AXIS2_PLACEMENT_3D ( 'NONE', #85, #243, #130 ) ;
#26 = DIRECTION ( 'NONE',  ( 0.000000000000000000, 0.000000000000000000, 1.000000000000000000 ) ) ;
#27 = CARTESIAN_POINT ( 'NONE',  ( 3.250000000000000444, 3.980102097228898231E-16, 630.0000000000000000 ) ) ;
#28 = CALENDAR_DATE ( 2023, 12, 2 ) ;
#29 = ORIENTED_EDGE ( 'NONE', *, *, #133, .F. ) ;
#30 = CARTESIAN_POINT ( 'NONE',  ( 0.000000000000000000, 0.000000000000000000, 5.000000000000000000 ) ) ;
#31 = FACE_OUTER_BOUND ( 'NONE', #189, .T. ) ;
#32 = EDGE_CURVE ( 'NONE', #108, #237, #123, .T. ) ;
#33 = PERSON_AND_ORGANIZATION ( #80, #65 ) ;
#34 = LOCAL_TIME ( 13, 6, 56.00000000000000000, #89 ) ;
#35 = APPROVAL_PERSON_ORGANIZATION ( #224, #20, #244 ) ;
#36 = ADVANCED_FACE ( 'NONE', ( #145 ), #218, .T. ) ;
#37 = ORIENTED_EDGE ( 'NONE', *, *, #241, .F. ) ;
#38 = VERTEX_POINT ( 'NONE', #82 ) ;
#39 =( LENGTH_UNIT ( ) NAMED_UNIT ( * ) SI_UNIT ( .MILLI., .METRE. ) );
#40 = CC_DESIGN_PERSON_AND_ORGANIZATION_ASSIGNMENT ( #111, #176, ( #118 ) ) ;
#41 = DIRECTION ( 'NONE',  ( 0.000000000000000000, 0.000000000000000000, 1.000000000000000000 ) ) ;
#42 = CARTESIAN_POINT ( 'NONE',  ( 6.000000000000000888, 7.347880794884120722E-16, 0.000000000000000000 ) ) ;
#43 = DIRECTION ( 'NONE',  ( 1.000000000000000000, 0.000000000000000000, 0.000000000000000000 ) ) ;
#44 =( GEOMETRIC_REPRESENTATION_CONTEXT ( 3 ) GLOBAL_UNCERTAINTY_ASSIGNED_CONTEXT ( ( #161 ) ) GLOBAL_UNIT_ASSIGNED_CONTEXT ( ( #39, #81, #97 ) ) REPRESENTATION_CONTEXT ( 'NONE', 'WORKASPACE' ) );
#45 = CARTESIAN_POINT ( 'NONE',  ( 0.000000000000000000, 0.000000000000000000, 630.0000000000000000 ) ) ;
#46 = CARTESIAN_POINT ( 'NONE',  ( 6.000000000000000888, 7.347880794884120722E-16, 5.000000000000000000 ) ) ;
#47 = PERSON_AND_ORGANIZATION ( #80, #65 ) ;
#48 = VERTEX_POINT ( 'NONE', #2 ) ;
#49 = CIRCLE ( 'NONE', #172, 3.250000000000000444 ) ;
#50 = DIRECTION ( 'NONE',  ( -0.000000000000000000, -0.000000000000000000, -1.000000000000000000 ) ) ;
#51 = COORDINATED_UNIVERSAL_TIME_OFFSET ( 1, 0, .AHEAD. ) ;
#52 = APPLICATION_PROTOCOL_DEFINITION ( 'international standard', 'config_control_design', 1994, #135 ) ;
#53 = AXIS2_PLACEMENT_3D ( 'NONE', #164, #41, #60 ) ;
#54 = CC_DESIGN_DATE_AND_TIME_ASSIGNMENT ( #206, #238, ( #215 ) ) ;
#55 = ORIENTED_EDGE ( 'NONE', *, *, #241, .T. ) ;
#56 = CIRCLE ( 'NONE', #236, 6.000000000000000888 ) ;
#57 = ORIENTED_EDGE ( 'NONE', *, *, #144, .F. ) ;
#58 = PERSON_AND_ORGANIZATION ( #80, #65 ) ;
#59 = APPROVAL ( #132, 'NEURÈENÝ' ) ;
#60 = DIRECTION ( 'NONE',  ( 1.000000000000000000, 0.000000000000000000, -0.000000000000000000 ) ) ;
#61 = CARTESIAN_POINT ( 'NONE',  ( -3.250000000000000444, 0.000000000000000000, 630.0000000000000000 ) ) ;
#62 = SHAPE_DEFINITION_REPRESENTATION ( #120, #140 ) ;
#63 = DIRECTION ( 'NONE',  ( -0.000000000000000000, -0.000000000000000000, -1.000000000000000000 ) ) ;
#64 = EDGE_CURVE ( 'NONE', #78, #151, #234, .T. ) ;
#65 = ORGANIZATION ( 'NEURÈENÝ', 'NEURÈENÝ', '' ) ;
#66 = VERTEX_POINT ( 'NONE', #61 ) ;
#67 = DIRECTION ( 'NONE',  ( -1.000000000000000000, 0.000000000000000000, 0.000000000000000000 ) ) ;
#68 = CARTESIAN_POINT ( 'NONE',  ( 0.000000000000000000, 0.000000000000000000, 5.000000000000000000 ) ) ;
#69 = COORDINATED_UNIVERSAL_TIME_OFFSET ( 1, 0, .AHEAD. ) ;
#70 = CC_DESIGN_PERSON_AND_ORGANIZATION_ASSIGNMENT ( #194, #93, ( #177 ) ) ;
#71 = ORIENTED_EDGE ( 'NONE', *, *, #4, .T. ) ;
#72 = FACE_OUTER_BOUND ( 'NONE', #138, .T. ) ;
#73 = CC_DESIGN_APPROVAL ( #20, ( #215 ) ) ;
#74 = AXIS2_PLACEMENT_3D ( 'NONE', #193, #50, #67 ) ;
#75 = APPROVAL_DATE_TIME ( #251, #59 ) ;
#76 = CIRCLE ( 'NONE', #205, 3.250000000000000444 ) ;
#77 = DIRECTION ( 'NONE',  ( 0.000000000000000000, 0.000000000000000000, 1.000000000000000000 ) ) ;
#78 = VERTEX_POINT ( 'NONE', #122 ) ;
#79 = CARTESIAN_POINT ( 'NONE',  ( -6.000000000000000888, 0.000000000000000000, 5.000000000000000000 ) ) ;
#80 = PERSON ( 'NEURÈENÝ', 'NEURÈENÝ', 'NEURÈENÝ', ('NEURÈENÝ'), ('NEURÈENÝ'), ('NEURÈENÝ') ) ;
#81 =( NAMED_UNIT ( * ) PLANE_ANGLE_UNIT ( ) SI_UNIT ( $, .RADIAN. ) );
#82 = CARTESIAN_POINT ( 'NONE',  ( -6.000000000000000888, 0.000000000000000000, 0.000000000000000000 ) ) ;
#83 = DIRECTION ( 'NONE',  ( 0.000000000000000000, 0.000000000000000000, 1.000000000000000000 ) ) ;
#84 = AXIS2_PLACEMENT_3D ( 'NONE', #30, #245, #107 ) ;
#85 = CARTESIAN_POINT ( 'NONE',  ( 0.000000000000000000, 0.000000000000000000, 5.000000000000000000 ) ) ;
#86 = ADVANCED_FACE ( 'NONE', ( #180 ), #183, .T. ) ;
#87 = CARTESIAN_POINT ( 'NONE',  ( 0.000000000000000000, 0.000000000000000000, 630.0000000000000000 ) ) ;
#88 = DIRECTION ( 'NONE',  ( 1.000000000000000000, 0.000000000000000000, 0.000000000000000000 ) ) ;
#89 = COORDINATED_UNIVERSAL_TIME_OFFSET ( 1, 0, .AHEAD. ) ;
#90 = ORIENTED_EDGE ( 'NONE', *, *, #121, .F. ) ;
#91 = DIRECTION ( 'NONE',  ( 1.000000000000000000, 0.000000000000000000, -0.000000000000000000 ) ) ;
#92 = VERTEX_POINT ( 'NONE', #42 ) ;
#93 = PERSON_AND_ORGANIZATION_ROLE ( 'design_supplier' ) ;
#94 = CARTESIAN_POINT ( 'NONE',  ( 0.000000000000000000, 0.000000000000000000, 0.000000000000000000 ) ) ;
#95 = VECTOR ( 'NONE', #10, 1000.000000000000000 ) ;
#96 = ORIENTED_EDGE ( 'NONE', *, *, #252, .T. ) ;
#97 =( NAMED_UNIT ( * ) SI_UNIT ( $, .STERADIAN. ) SOLID_ANGLE_UNIT ( ) );
#98 = LOCAL_TIME ( 13, 6, 56.00000000000000000, #51 ) ;
#99 = DIRECTION ( 'NONE',  ( 0.000000000000000000, 0.000000000000000000, 1.000000000000000000 ) ) ;
#100 = CC_DESIGN_SECURITY_CLASSIFICATION ( #215, ( #177 ) ) ;
#101 = COORDINATED_UNIVERSAL_TIME_OFFSET ( 1, 0, .AHEAD. ) ;
#102 = CARTESIAN_POINT ( 'NONE',  ( 0.000000000000000000, 0.000000000000000000, 5.000000000000000000 ) ) ;
#103 = CC_DESIGN_PERSON_AND_ORGANIZATION_ASSIGNMENT ( #47, #127, ( #154 ) ) ;
#104 = AXIS2_PLACEMENT_3D ( 'NONE', #131, #166, #91 ) ;
#105 = CARTESIAN_POINT ( 'NONE',  ( 0.000000000000000000, 0.000000000000000000, 0.000000000000000000 ) ) ;
#106 = DATE_TIME_ROLE ( 'creation_date' ) ;
#107 = DIRECTION ( 'NONE',  ( -1.000000000000000000, 0.000000000000000000, 0.000000000000000000 ) ) ;
#108 = VERTEX_POINT ( 'NONE', #3 ) ;
#109 = CARTESIAN_POINT ( 'NONE',  ( 6.000000000000000888, 7.347880794884120722E-16, 5.000000000000000000 ) ) ;
#110 = PERSON_AND_ORGANIZATION_ROLE ( 'creator' ) ;
#111 = PERSON_AND_ORGANIZATION ( #80, #65 ) ;
#112 = APPROVAL ( #168, 'NEURÈENÝ' ) ;
#113 = AXIS2_PLACEMENT_3D ( 'NONE', #94, #77, #156 ) ;
#114 = CIRCLE ( 'NONE', #5, 3.250000000000000444 ) ;
#115 = EDGE_LOOP ( 'NONE', ( #211, #117 ) ) ;
#116 = EDGE_LOOP ( 'NONE', ( #217, #192, #141, #160 ) ) ;
#117 = ORIENTED_EDGE ( 'NONE', *, *, #197, .T. ) ;
#118 = PRODUCT ( 'dca7', 'dca7', '', ( #134 ) ) ;
#119 = CARTESIAN_POINT ( 'NONE',  ( 0.000000000000000000, 0.000000000000000000, 0.000000000000000000 ) ) ;
#120 = PRODUCT_DEFINITION_SHAPE ( 'NONE', 'NONE',  #154 ) ;
#121 = EDGE_CURVE ( 'NONE', #92, #38, #24, .T. ) ;
#122 = CARTESIAN_POINT ( 'NONE',  ( 3.250000000000000444, 3.980102097228898231E-16, 5.000000000000000000 ) ) ;
#123 = CIRCLE ( 'NONE', #158, 6.000000000000000888 ) ;
#124 = DIRECTION ( 'NONE',  ( -1.000000000000000000, 0.000000000000000000, 0.000000000000000000 ) ) ;
#125 = AXIS2_PLACEMENT_3D ( 'NONE', #105, #146, #43 ) ;
#126 = DATE_AND_TIME ( #242, #181 ) ;
#127 = PERSON_AND_ORGANIZATION_ROLE ( 'creator' ) ;
#128 = ORIENTED_EDGE ( 'NONE', *, *, #233, .T. ) ;
#129 = DIRECTION ( 'NONE',  ( 0.000000000000000000, 0.000000000000000000, 1.000000000000000000 ) ) ;
#130 = DIRECTION ( 'NONE',  ( 1.000000000000000000, 0.000000000000000000, -0.000000000000000000 ) ) ;
#131 = CARTESIAN_POINT ( 'NONE',  ( 0.000000000000000000, 0.000000000000000000, 0.000000000000000000 ) ) ;
#132 = APPROVAL_STATUS ( 'not_yet_approved' ) ;
#133 = EDGE_CURVE ( 'NONE', #237, #92, #200, .T. ) ;
#134 = MECHANICAL_CONTEXT ( 'NONE', #135, 'mechanical' ) ;
#135 = APPLICATION_CONTEXT ( 'configuration controlled 3d designs of mechanical parts and assemblies' ) ;
#136 = CC_DESIGN_DATE_AND_TIME_ASSIGNMENT ( #208, #106, ( #154 ) ) ;
#137 = VECTOR ( 'NONE', #22, 1000.000000000000000 ) ;
#138 = EDGE_LOOP ( 'NONE', ( #253, #90 ) ) ;
#139 = CIRCLE ( 'NONE', #125, 6.000000000000000888 ) ;
#140 = ADVANCED_BREP_SHAPE_REPRESENTATION ( 'dca7', ( #232, #113 ), #44 ) ;
#141 = ORIENTED_EDGE ( 'NONE', *, *, #121, .T. ) ;
#142 = APPROVAL_STATUS ( 'not_yet_approved' ) ;
#143 = DIRECTION ( 'NONE',  ( 0.000000000000000000, 0.000000000000000000, 1.000000000000000000 ) ) ;
#144 = EDGE_CURVE ( 'NONE', #66, #48, #114, .T. ) ;
#145 = FACE_OUTER_BOUND ( 'NONE', #18, .T. ) ;
#146 = DIRECTION ( 'NONE',  ( 0.000000000000000000, 0.000000000000000000, 1.000000000000000000 ) ) ;
#147 = CC_DESIGN_APPROVAL ( #112, ( #154 ) ) ;
#148 = CYLINDRICAL_SURFACE ( 'NONE', #84, 6.000000000000000888 ) ;
#149 = DIRECTION ( 'NONE',  ( 0.000000000000000000, 0.000000000000000000, 1.000000000000000000 ) ) ;
#150 = CALENDAR_DATE ( 2023, 12, 2 ) ;
#151 = VERTEX_POINT ( 'NONE', #152 ) ;
#152 = CARTESIAN_POINT ( 'NONE',  ( -3.250000000000000444, 0.000000000000000000, 5.000000000000000000 ) ) ;
#153 = LOCAL_TIME ( 13, 6, 56.00000000000000000, #101 ) ;
#154 = PRODUCT_DEFINITION ( 'NEZNÁMÝ', '', #177, #6 ) ;
#155 = SECURITY_CLASSIFICATION_LEVEL ( 'unclassified' ) ;
#156 = DIRECTION ( 'NONE',  ( 1.000000000000000000, 0.000000000000000000, 0.000000000000000000 ) ) ;
#157 = EDGE_LOOP ( 'NONE', ( #225, #128 ) ) ;
#158 = AXIS2_PLACEMENT_3D ( 'NONE', #240, #143, #23 ) ;
#159 = ADVANCED_FACE ( 'NONE', ( #249 ), #148, .T. ) ;
#160 = ORIENTED_EDGE ( 'NONE', *, *, #4, .F. ) ;
#161 = UNCERTAINTY_MEASURE_WITH_UNIT (LENGTH_MEASURE( 1.000000000000000082E-05 ), #39, 'distance_accuracy_value', 'NONE');
#162 = DIRECTION ( 'NONE',  ( -0.000000000000000000, -0.000000000000000000, -1.000000000000000000 ) ) ;
#163 = ADVANCED_FACE ( 'NONE', ( #190 ), #13, .T. ) ;
#164 = CARTESIAN_POINT ( 'NONE',  ( 0.000000000000000000, 0.000000000000000000, 630.0000000000000000 ) ) ;
#165 = PLANE ( 'NONE',  #25 ) ;
#166 = DIRECTION ( 'NONE',  ( 0.000000000000000000, 0.000000000000000000, 1.000000000000000000 ) ) ;
#167 = LINE ( 'NONE', #27, #95 ) ;
#168 = APPROVAL_STATUS ( 'not_yet_approved' ) ;
#169 = LINE ( 'NONE', #14, #184 ) ;
#170 = AXIS2_PLACEMENT_3D ( 'NONE', #219, #162, #179 ) ;
#171 = PERSON_AND_ORGANIZATION ( #80, #65 ) ;
#172 = AXIS2_PLACEMENT_3D ( 'NONE', #204, #26, #7 ) ;
#173 = ORIENTED_EDGE ( 'NONE', *, *, #203, .T. ) ;
#174 = ADVANCED_FACE ( 'NONE', ( #72 ), #226, .F. ) ;
#175 = EDGE_LOOP ( 'NONE', ( #29, #254, #71, #173 ) ) ;
#176 = PERSON_AND_ORGANIZATION_ROLE ( 'design_owner' ) ;
#177 = PRODUCT_DEFINITION_FORMATION_WITH_SPECIFIED_SOURCE ( 'LIBOVOLNÝ', '', #118, .NOT_KNOWN. ) ;
#178 = EDGE_CURVE ( 'NONE', #66, #151, #169, .T. ) ;
#179 = DIRECTION ( 'NONE',  ( -1.000000000000000000, 0.000000000000000000, 0.000000000000000000 ) ) ;
#180 = FACE_OUTER_BOUND ( 'NONE', #115, .T. ) ;
#181 = LOCAL_TIME ( 13, 6, 56.00000000000000000, #8 ) ;
#182 = CALENDAR_DATE ( 2023, 12, 2 ) ;
#183 = PLANE ( 'NONE',  #53 ) ;
#184 = VECTOR ( 'NONE', #212, 1000.000000000000000 ) ;
#185 = FACE_BOUND ( 'NONE', #12, .T. ) ;
#186 = APPLICATION_CONTEXT ( 'configuration controlled 3d designs of mechanical parts and assemblies' ) ;
#187 = CARTESIAN_POINT ( 'NONE',  ( 0.000000000000000000, 0.000000000000000000, 5.000000000000000000 ) ) ;
#188 = PERSON_AND_ORGANIZATION ( #80, #65 ) ;
#189 = EDGE_LOOP ( 'NONE', ( #228, #55, #235, #248 ) ) ;
#190 = FACE_OUTER_BOUND ( 'NONE', #175, .T. ) ;
#191 = ADVANCED_FACE ( 'NONE', ( #31 ), #9, .T. ) ;
#192 = ORIENTED_EDGE ( 'NONE', *, *, #133, .T. ) ;
#193 = CARTESIAN_POINT ( 'NONE',  ( 0.000000000000000000, 0.000000000000000000, 5.000000000000000000 ) ) ;
#194 = PERSON_AND_ORGANIZATION ( #80, #65 ) ;
#195 = CC_DESIGN_APPROVAL ( #59, ( #177 ) ) ;
#196 = AXIS2_PLACEMENT_3D ( 'NONE', #87, #63, #124 ) ;
#197 = EDGE_CURVE ( 'NONE', #48, #66, #49, .T. ) ;
#198 = ORIENTED_EDGE ( 'NONE', *, *, #252, .F. ) ;
#199 = ORIENTED_EDGE ( 'NONE', *, *, #64, .F. ) ;
#200 = LINE ( 'NONE', #109, #230 ) ;
#201 = DIRECTION ( 'NONE',  ( 1.000000000000000000, 0.000000000000000000, 0.000000000000000000 ) ) ;
#202 = AXIS2_PLACEMENT_3D ( 'NONE', #119, #99, #201 ) ;
#203 = EDGE_CURVE ( 'NONE', #38, #92, #139, .T. ) ;
#204 = CARTESIAN_POINT ( 'NONE',  ( 0.000000000000000000, 0.000000000000000000, 630.0000000000000000 ) ) ;
#205 = AXIS2_PLACEMENT_3D ( 'NONE', #68, #149, #246 ) ;
#206 = DATE_AND_TIME ( #182, #153 ) ;
#207 = DIRECTION ( 'NONE',  ( 0.000000000000000000, 0.000000000000000000, 1.000000000000000000 ) ) ;
#208 = DATE_AND_TIME ( #28, #34 ) ;
#209 = CC_DESIGN_PERSON_AND_ORGANIZATION_ASSIGNMENT ( #33, #110, ( #177 ) ) ;
#210 = DIRECTION ( 'NONE',  ( 1.000000000000000000, 0.000000000000000000, 0.000000000000000000 ) ) ;
#211 = ORIENTED_EDGE ( 'NONE', *, *, #144, .T. ) ;
#212 = DIRECTION ( 'NONE',  ( -0.000000000000000000, -0.000000000000000000, -1.000000000000000000 ) ) ;
#213 = CALENDAR_DATE ( 2023, 12, 2 ) ;
#214 = APPROVAL_PERSON_ORGANIZATION ( #188, #59, #16 ) ;
#215 = SECURITY_CLASSIFICATION ( '', '', #155 ) ;
#216 = ORIENTED_EDGE ( 'NONE', *, *, #178, .T. ) ;
#217 = ORIENTED_EDGE ( 'NONE', *, *, #233, .F. ) ;
#218 = CYLINDRICAL_SURFACE ( 'NONE', #170, 3.250000000000000444 ) ;
#219 = CARTESIAN_POINT ( 'NONE',  ( 0.000000000000000000, 0.000000000000000000, 630.0000000000000000 ) ) ;
#220 = ADVANCED_FACE ( 'NONE', ( #185, #222 ), #165, .T. ) ;
#221 = APPROVAL_DATE_TIME ( #126, #20 ) ;
#222 = FACE_OUTER_BOUND ( 'NONE', #157, .T. ) ;
#223 = APPROVAL_PERSON_ORGANIZATION ( #58, #112, #247 ) ;
#224 = PERSON_AND_ORGANIZATION ( #80, #65 ) ;
#225 = ORIENTED_EDGE ( 'NONE', *, *, #32, .T. ) ;
#226 = PLANE ( 'NONE',  #104 ) ;
#227 = DATE_AND_TIME ( #150, #255 ) ;
#228 = ORIENTED_EDGE ( 'NONE', *, *, #197, .F. ) ;
#229 = DIRECTION ( 'NONE',  ( -0.000000000000000000, -0.000000000000000000, -1.000000000000000000 ) ) ;
#230 = VECTOR ( 'NONE', #229, 1000.000000000000000 ) ;
#231 = PERSON_AND_ORGANIZATION_ROLE ( 'classification_officer' ) ;
#232 = MANIFOLD_SOLID_BREP ( 'Pøidat vysunutím3', #250 ) ;
#233 = EDGE_CURVE ( 'NONE', #237, #108, #56, .T. ) ;
#234 = CIRCLE ( 'NONE', #15, 3.250000000000000444 ) ;
#235 = ORIENTED_EDGE ( 'NONE', *, *, #64, .T. ) ;
#236 = AXIS2_PLACEMENT_3D ( 'NONE', #187, #207, #88 ) ;
#237 = VERTEX_POINT ( 'NONE', #46 ) ;
#238 = DATE_TIME_ROLE ( 'classification_date' ) ;
#239 = DIRECTION ( 'NONE',  ( 1.000000000000000000, 0.000000000000000000, 0.000000000000000000 ) ) ;
#240 = CARTESIAN_POINT ( 'NONE',  ( 0.000000000000000000, 0.000000000000000000, 5.000000000000000000 ) ) ;
#241 = EDGE_CURVE ( 'NONE', #48, #78, #167, .T. ) ;
#242 = CALENDAR_DATE ( 2023, 12, 2 ) ;
#243 = DIRECTION ( 'NONE',  ( 0.000000000000000000, 0.000000000000000000, 1.000000000000000000 ) ) ;
#244 = APPROVAL_ROLE ( '' ) ;
#245 = DIRECTION ( 'NONE',  ( -0.000000000000000000, -0.000000000000000000, -1.000000000000000000 ) ) ;
#246 = DIRECTION ( 'NONE',  ( 1.000000000000000000, 0.000000000000000000, 0.000000000000000000 ) ) ;
#247 = APPROVAL_ROLE ( '' ) ;
#248 = ORIENTED_EDGE ( 'NONE', *, *, #178, .F. ) ;
#249 = FACE_OUTER_BOUND ( 'NONE', #116, .T. ) ;
#250 = CLOSED_SHELL ( 'NONE', ( #191, #159, #163, #220, #174, #36, #86 ) ) ;
#251 = DATE_AND_TIME ( #213, #98 ) ;
#252 = EDGE_CURVE ( 'NONE', #151, #78, #76, .T. ) ;
#253 = ORIENTED_EDGE ( 'NONE', *, *, #203, .F. ) ;
#254 = ORIENTED_EDGE ( 'NONE', *, *, #32, .F. ) ;
#255 = LOCAL_TIME ( 13, 6, 56.00000000000000000, #69 ) ;
ENDSEC;
END-ISO-10303-21;
