ISO-10303-21;
HEADER;
FILE_DESCRIPTION (( 'STEP AP203' ),
    '1' );
FILE_NAME ('6e3b.STEP',
    '2022-07-07T09:35:59',
    ( '' ),
    ( '' ),
    'SwSTEP 2.0',
    'SolidWorks 2019',
    '' );
FILE_SCHEMA (( 'CONFIG_CONTROL_DESIGN' ));
ENDSEC;

DATA;
#1 = CARTESIAN_POINT ( 'NONE',  ( -12.00000000000000178, 0.000000000000000000, 7.000000000000000000 ) ) ;
#2 = PERSON_AND_ORGANIZATION_ROLE ( 'creator' ) ;
#3 = AXIS2_PLACEMENT_3D ( 'NONE', #50, #303, #91 ) ;
#4 = ORIENTED_EDGE ( 'NONE', *, *, #247, .F. ) ;
#5 = EDGE_CURVE ( 'NONE', #274, #162, #183, .T. ) ;
#6 = CALENDAR_DATE ( 2022, 7, 7 ) ;
#7 = CLOSED_SHELL ( 'NONE', ( #143, #19, #159, #210, #294, #223, #169, #258, #193 ) ) ;
#8 = TOROIDAL_SURFACE ( 'NONE', #72, 9.199999999999999289, 0.2000000000000000111 ) ;
#9 = PERSON_AND_ORGANIZATION ( #127, #85 ) ;
#10 = APPROVAL ( #121, 'NEURÈENÝ' ) ;
#11 = AXIS2_PLACEMENT_3D ( 'NONE', #129, #123, #276 ) ;
#12 = DIRECTION ( 'NONE',  ( 0.000000000000000000, 0.000000000000000000, 1.000000000000000000 ) ) ;
#13 = DIRECTION ( 'NONE',  ( 0.000000000000000000, -1.000000000000000000, 0.000000000000000000 ) ) ;
#14 = CARTESIAN_POINT ( 'NONE',  ( 0.000000000000000000, 0.000000000000000000, 7.000000000000000000 ) ) ;
#15 = CIRCLE ( 'NONE', #58, 12.00000000000000178 ) ;
#16 = LOCAL_TIME ( 11, 35, 59.00000000000000000, #74 ) ;
#17 = CARTESIAN_POINT ( 'NONE',  ( 0.000000000000000000, 0.000000000000000000, 7.199999999999984190 ) ) ;
#18 = CARTESIAN_POINT ( 'NONE',  ( -9.000000000000000000, 0.000000000000000000, 322.0000000000000000 ) ) ;
#19 = ADVANCED_FACE ( 'NONE', ( #215 ), #23, .T. ) ;
#20 = EDGE_LOOP ( 'NONE', ( #172, #160, #131, #255 ) ) ;
#21 = CIRCLE ( 'NONE', #200, 9.000000000000000000 ) ;
#22 = CIRCLE ( 'NONE', #166, 12.00000000000000178 ) ;
#23 = CYLINDRICAL_SURFACE ( 'NONE', #293, 9.000000000000000000 ) ;
#24 = CARTESIAN_POINT ( 'NONE',  ( 0.000000000000000000, 0.000000000000000000, 0.000000000000000000 ) ) ;
#25 = DIRECTION ( 'NONE',  ( -1.000000000000000000, 0.000000000000000000, 0.000000000000000000 ) ) ;
#26 = DIRECTION ( 'NONE',  ( 1.224646799147353207E-16, 1.000000000000000000, -0.000000000000000000 ) ) ;
#27 = ADVANCED_BREP_SHAPE_REPRESENTATION ( '6e3b', ( #228, #48 ), #219 ) ;
#28 = PRODUCT_DEFINITION ( 'NEZNÁMÝ', '', #253, #301 ) ;
#29 = ORIENTED_EDGE ( 'NONE', *, *, #299, .F. ) ;
#30 = AXIS2_PLACEMENT_3D ( 'NONE', #235, #68, #256 ) ;
#31 = PERSON_AND_ORGANIZATION ( #127, #85 ) ;
#32 = CC_DESIGN_SECURITY_CLASSIFICATION ( #96, ( #253 ) ) ;
#33 = APPROVAL_ROLE ( '' ) ;
#34 = PERSON_AND_ORGANIZATION_ROLE ( 'design_owner' ) ;
#35 = AXIS2_PLACEMENT_3D ( 'NONE', #110, #66, #268 ) ;
#36 = AXIS2_PLACEMENT_3D ( 'NONE', #226, #178, #40 ) ;
#37 = DIRECTION ( 'NONE',  ( 1.000000000000000000, 0.000000000000000000, 0.000000000000000000 ) ) ;
#38 = DIRECTION ( 'NONE',  ( 1.000000000000000000, 0.000000000000000000, 0.000000000000000000 ) ) ;
#39 = CC_DESIGN_DATE_AND_TIME_ASSIGNMENT ( #170, #139, ( #96 ) ) ;
#40 = DIRECTION ( 'NONE',  ( 1.000000000000000000, 0.000000000000000000, 0.000000000000000000 ) ) ;
#41 = CARTESIAN_POINT ( 'NONE',  ( 0.000000000000000000, 0.000000000000000000, 7.199999999999984190 ) ) ;
#42 = CIRCLE ( 'NONE', #43, 9.000000000000000000 ) ;
#43 = AXIS2_PLACEMENT_3D ( 'NONE', #114, #112, #69 ) ;
#44 = CC_DESIGN_PERSON_AND_ORGANIZATION_ASSIGNMENT ( #244, #2, ( #28 ) ) ;
#45 = CARTESIAN_POINT ( 'NONE',  ( 0.000000000000000000, 0.000000000000000000, 0.000000000000000000 ) ) ;
#46 = ORIENTED_EDGE ( 'NONE', *, *, #77, .F. ) ;
#47 = ORIENTED_EDGE ( 'NONE', *, *, #126, .T. ) ;
#48 = AXIS2_PLACEMENT_3D ( 'NONE', #94, #190, #282 ) ;
#49 = CARTESIAN_POINT ( 'NONE',  ( 0.000000000000000000, 0.000000000000000000, 7.000000000000000000 ) ) ;
#50 = CARTESIAN_POINT ( 'NONE',  ( 0.000000000000000000, 0.000000000000000000, 7.000000000000000000 ) ) ;
#51 = EDGE_CURVE ( 'NONE', #70, #167, #283, .T. ) ;
#52 = CARTESIAN_POINT ( 'NONE',  ( -12.00000000000000178, 0.000000000000000000, 0.000000000000000000 ) ) ;
#53 = CARTESIAN_POINT ( 'NONE',  ( 0.000000000000000000, 0.000000000000000000, 322.0000000000000000 ) ) ;
#54 = APPROVAL_ROLE ( '' ) ;
#55 = COORDINATED_UNIVERSAL_TIME_OFFSET ( 1, 0, .AHEAD. ) ;
#56 = PRODUCT_RELATED_PRODUCT_CATEGORY ( 'detail', '', ( #208 ) ) ;
#57 = EDGE_LOOP ( 'NONE', ( #279, #144, #191, #236 ) ) ;
#58 = AXIS2_PLACEMENT_3D ( 'NONE', #59, #62, #37 ) ;
#59 = CARTESIAN_POINT ( 'NONE',  ( 0.000000000000000000, 0.000000000000000000, 0.000000000000000000 ) ) ;
#60 = APPROVAL ( #243, 'NEURÈENÝ' ) ;
#61 = AXIS2_PLACEMENT_3D ( 'NONE', #233, #26, #188 ) ;
#62 = DIRECTION ( 'NONE',  ( 0.000000000000000000, 0.000000000000000000, 1.000000000000000000 ) ) ;
#63 = CARTESIAN_POINT ( 'NONE',  ( -12.00000000000000178, 0.000000000000000000, 7.000000000000000000 ) ) ;
#64 = DIRECTION ( 'NONE',  ( 0.000000000000000000, 0.000000000000000000, -1.000000000000000000 ) ) ;
#65 = CC_DESIGN_PERSON_AND_ORGANIZATION_ASSIGNMENT ( #239, #120, ( #96 ) ) ;
#66 = DIRECTION ( 'NONE',  ( -0.000000000000000000, -0.000000000000000000, -1.000000000000000000 ) ) ;
#67 = EDGE_LOOP ( 'NONE', ( #4, #137 ) ) ;
#68 = DIRECTION ( 'NONE',  ( -0.000000000000000000, -0.000000000000000000, -1.000000000000000000 ) ) ;
#69 = DIRECTION ( 'NONE',  ( 1.000000000000000000, 0.000000000000000000, 0.000000000000000000 ) ) ;
#70 = VERTEX_POINT ( 'NONE', #1 ) ;
#71 = DIRECTION ( 'NONE',  ( 0.000000000000000000, 0.000000000000000000, 1.000000000000000000 ) ) ;
#72 = AXIS2_PLACEMENT_3D ( 'NONE', #86, #12, #104 ) ;
#73 = ORIENTED_EDGE ( 'NONE', *, *, #92, .T. ) ;
#74 = COORDINATED_UNIVERSAL_TIME_OFFSET ( 1, 0, .AHEAD. ) ;
#75 = VERTEX_POINT ( 'NONE', #52 ) ;
#76 = COORDINATED_UNIVERSAL_TIME_OFFSET ( 1, 0, .AHEAD. ) ;
#77 = EDGE_CURVE ( 'NONE', #189, #196, #21, .T. ) ;
#78 = APPROVAL_PERSON_ORGANIZATION ( #145, #103, #33 ) ;
#79 = DATE_AND_TIME ( #222, #134 ) ;
#80 = CALENDAR_DATE ( 2022, 7, 7 ) ;
#81 = EDGE_CURVE ( 'NONE', #213, #75, #15, .T. ) ;
#82 = CYLINDRICAL_SURFACE ( 'NONE', #35, 9.000000000000000000 ) ;
#83 = EDGE_CURVE ( 'NONE', #185, #189, #107, .T. ) ;
#84 = LINE ( 'NONE', #18, #201 ) ;
#85 = ORGANIZATION ( 'NEURÈENÝ', 'NEURÈENÝ', '' ) ;
#86 = CARTESIAN_POINT ( 'NONE',  ( 0.000000000000000000, 0.000000000000000000, 7.199999999999984190 ) ) ;
#87 = FACE_OUTER_BOUND ( 'NONE', #90, .T. ) ;
#88 = FACE_OUTER_BOUND ( 'NONE', #216, .T. ) ;
#89 = EDGE_LOOP ( 'NONE', ( #307, #238 ) ) ;
#90 = EDGE_LOOP ( 'NONE', ( #135, #46, #141, #95 ) ) ;
#91 = DIRECTION ( 'NONE',  ( 1.000000000000000000, 0.000000000000000000, -0.000000000000000000 ) ) ;
#92 = EDGE_CURVE ( 'NONE', #196, #189, #234, .T. ) ;
#93 = ORIENTED_EDGE ( 'NONE', *, *, #99, .T. ) ;
#94 = CARTESIAN_POINT ( 'NONE',  ( 0.000000000000000000, 0.000000000000000000, 0.000000000000000000 ) ) ;
#95 = ORIENTED_EDGE ( 'NONE', *, *, #5, .F. ) ;
#96 = SECURITY_CLASSIFICATION ( '', '', #142 ) ;
#97 = APPROVAL_DATE_TIME ( #117, #10 ) ;
#98 = ORIENTED_EDGE ( 'NONE', *, *, #51, .F. ) ;
#99 = EDGE_CURVE ( 'NONE', #70, #75, #296, .T. ) ;
#100 = COORDINATED_UNIVERSAL_TIME_OFFSET ( 1, 0, .AHEAD. ) ;
#101 = APPROVAL_STATUS ( 'not_yet_approved' ) ;
#102 = CIRCLE ( 'NONE', #36, 9.000000000000000000 ) ;
#103 = APPROVAL ( #101, 'NEURÈENÝ' ) ;
#104 = DIRECTION ( 'NONE',  ( 1.000000000000000000, 0.000000000000000000, 0.000000000000000000 ) ) ;
#105 = DIRECTION ( 'NONE',  ( 1.000000000000000000, 0.000000000000000000, 0.000000000000000000 ) ) ;
#106 = CIRCLE ( 'NONE', #291, 0.1999999999999996503 ) ;
#107 = LINE ( 'NONE', #250, #156 ) ;
#108 = UNCERTAINTY_MEASURE_WITH_UNIT (LENGTH_MEASURE( 1.000000000000000082E-05 ), #278, 'distance_accuracy_value', 'NONE');
#109 = DIRECTION ( 'NONE',  ( -0.000000000000000000, -0.000000000000000000, -1.000000000000000000 ) ) ;
#110 = CARTESIAN_POINT ( 'NONE',  ( 0.000000000000000000, 0.000000000000000000, 322.0000000000000000 ) ) ;
#111 = ORIENTED_EDGE ( 'NONE', *, *, #92, .F. ) ;
#112 = DIRECTION ( 'NONE',  ( 0.000000000000000000, 0.000000000000000000, 1.000000000000000000 ) ) ;
#113 = CARTESIAN_POINT ( 'NONE',  ( 0.000000000000000000, 0.000000000000000000, 322.0000000000000000 ) ) ;
#114 = CARTESIAN_POINT ( 'NONE',  ( 0.000000000000000000, 0.000000000000000000, 322.0000000000000000 ) ) ;
#115 = DIRECTION ( 'NONE',  ( 1.000000000000000000, 0.000000000000000000, 0.000000000000000000 ) ) ;
#116 = CARTESIAN_POINT ( 'NONE',  ( -9.199999999999999289, 1.126675055215564822E-15, 6.999999999999992006 ) ) ;
#117 = DATE_AND_TIME ( #80, #194 ) ;
#118 = EDGE_LOOP ( 'NONE', ( #305, #218, #47, #73 ) ) ;
#119 = PERSON_AND_ORGANIZATION ( #127, #85 ) ;
#120 = PERSON_AND_ORGANIZATION_ROLE ( 'classification_officer' ) ;
#121 = APPROVAL_STATUS ( 'not_yet_approved' ) ;
#122 = VECTOR ( 'NONE', #179, 1000.000000000000000 ) ;
#123 = DIRECTION ( 'NONE',  ( -0.000000000000000000, -0.000000000000000000, -1.000000000000000000 ) ) ;
#124 = DIRECTION ( 'NONE',  ( -0.000000000000000000, -0.000000000000000000, -1.000000000000000000 ) ) ;
#125 = FACE_OUTER_BOUND ( 'NONE', #187, .T. ) ;
#126 = EDGE_CURVE ( 'NONE', #269, #196, #84, .T. ) ;
#127 = PERSON ( 'NEURÈENÝ', 'NEURÈENÝ', 'NEURÈENÝ', ('NEURÈENÝ'), ('NEURÈENÝ'), ('NEURÈENÝ') ) ;
#128 = AXIS2_PLACEMENT_3D ( 'NONE', #205, #109, #270 ) ;
#129 = CARTESIAN_POINT ( 'NONE',  ( 0.000000000000000000, 0.000000000000000000, 7.000000000000000000 ) ) ;
#130 = DIRECTION ( 'NONE',  ( 0.000000000000000000, 0.000000000000000000, 1.000000000000000000 ) ) ;
#131 = ORIENTED_EDGE ( 'NONE', *, *, #81, .T. ) ;
#132 = CC_DESIGN_PERSON_AND_ORGANIZATION_ASSIGNMENT ( #31, #34, ( #208 ) ) ;
#133 = ORIENTED_EDGE ( 'NONE', *, *, #148, .F. ) ;
#134 = LOCAL_TIME ( 11, 35, 59.00000000000000000, #76 ) ;
#135 = ORIENTED_EDGE ( 'NONE', *, *, #246, .F. ) ;
#136 = MECHANICAL_CONTEXT ( 'NONE', #154, 'mechanical' ) ;
#137 = ORIENTED_EDGE ( 'NONE', *, *, #81, .F. ) ;
#138 = PLANE ( 'NONE',  #3 ) ;
#139 = DATE_TIME_ROLE ( 'classification_date' ) ;
#140 = EDGE_CURVE ( 'NONE', #162, #274, #241, .T. ) ;
#141 = ORIENTED_EDGE ( 'NONE', *, *, #148, .T. ) ;
#142 = SECURITY_CLASSIFICATION_LEVEL ( 'unclassified' ) ;
#143 = ADVANCED_FACE ( 'NONE', ( #88 ), #229, .F. ) ;
#144 = ORIENTED_EDGE ( 'NONE', *, *, #83, .T. ) ;
#145 = PERSON_AND_ORGANIZATION ( #127, #85 ) ;
#146 = CC_DESIGN_APPROVAL ( #60, ( #253 ) ) ;
#147 = ORIENTED_EDGE ( 'NONE', *, *, #246, .T. ) ;
#148 = EDGE_CURVE ( 'NONE', #189, #162, #106, .T. ) ;
#149 = FACE_OUTER_BOUND ( 'NONE', #20, .T. ) ;
#150 = ORIENTED_EDGE ( 'NONE', *, *, #140, .T. ) ;
#151 = AXIS2_PLACEMENT_3D ( 'NONE', #49, #261, #115 ) ;
#152 = DIRECTION ( 'NONE',  ( 0.000000000000000000, 0.000000000000000000, 1.000000000000000000 ) ) ;
#153 = PRODUCT_DEFINITION_SHAPE ( 'NONE', 'NONE',  #28 ) ;
#154 = APPLICATION_CONTEXT ( 'configuration controlled 3d designs of mechanical parts and assemblies' ) ;
#155 = DIRECTION ( 'NONE',  ( 1.000000000000000000, 0.000000000000000000, 0.000000000000000000 ) ) ;
#156 = VECTOR ( 'NONE', #251, 1000.000000000000000 ) ;
#157 = VECTOR ( 'NONE', #163, 1000.000000000000000 ) ;
#158 = FACE_OUTER_BOUND ( 'NONE', #67, .T. ) ;
#159 = ADVANCED_FACE ( 'NONE', ( #149 ), #248, .T. ) ;
#160 = ORIENTED_EDGE ( 'NONE', *, *, #299, .T. ) ;
#161 =( NAMED_UNIT ( * ) SI_UNIT ( $, .STERADIAN. ) SOLID_ANGLE_UNIT ( ) );
#162 = VERTEX_POINT ( 'NONE', #180 ) ;
#163 = DIRECTION ( 'NONE',  ( -0.000000000000000000, -0.000000000000000000, -1.000000000000000000 ) ) ;
#164 = ORIENTED_EDGE ( 'NONE', *, *, #5, .T. ) ;
#165 = FACE_BOUND ( 'NONE', #277, .T. ) ;
#166 = AXIS2_PLACEMENT_3D ( 'NONE', #182, #203, #105 ) ;
#167 = VERTEX_POINT ( 'NONE', #300 ) ;
#168 = DIRECTION ( 'NONE',  ( 0.000000000000000000, 0.000000000000000000, 1.000000000000000000 ) ) ;
#169 = ADVANCED_FACE ( 'NONE', ( #297 ), #82, .T. ) ;
#170 = DATE_AND_TIME ( #290, #16 ) ;
#171 = SHAPE_DEFINITION_REPRESENTATION ( #153, #27 ) ;
#172 = ORIENTED_EDGE ( 'NONE', *, *, #204, .F. ) ;
#173 = EDGE_CURVE ( 'NONE', #185, #269, #102, .T. ) ;
#174 = APPROVAL_DATE_TIME ( #289, #103 ) ;
#175 = CALENDAR_DATE ( 2022, 7, 7 ) ;
#176 = APPROVAL_PERSON_ORGANIZATION ( #119, #10, #292 ) ;
#177 = AXIS2_PLACEMENT_3D ( 'NONE', #24, #168, #192 ) ;
#178 = DIRECTION ( 'NONE',  ( 0.000000000000000000, 0.000000000000000000, 1.000000000000000000 ) ) ;
#179 = DIRECTION ( 'NONE',  ( -0.000000000000000000, -0.000000000000000000, -1.000000000000000000 ) ) ;
#180 = CARTESIAN_POINT ( 'NONE',  ( 9.199999999999999289, 0.000000000000000000, 6.999999999999992006 ) ) ;
#181 = DIRECTION ( 'NONE',  ( -0.000000000000000000, -0.000000000000000000, -1.000000000000000000 ) ) ;
#182 = CARTESIAN_POINT ( 'NONE',  ( 0.000000000000000000, 0.000000000000000000, 7.000000000000000000 ) ) ;
#183 = CIRCLE ( 'NONE', #30, 9.199999999999999289 ) ;
#184 = CIRCLE ( 'NONE', #177, 12.00000000000000178 ) ;
#185 = VERTEX_POINT ( 'NONE', #225 ) ;
#186 = DIRECTION ( 'NONE',  ( 1.000000000000000000, 0.000000000000000000, -0.000000000000000000 ) ) ;
#187 = EDGE_LOOP ( 'NONE', ( #29, #98, #93, #259 ) ) ;
#188 = DIRECTION ( 'NONE',  ( -1.000000000000000000, 1.224646799147353207E-16, 0.000000000000000000 ) ) ;
#189 = VERTEX_POINT ( 'NONE', #230 ) ;
#190 = DIRECTION ( 'NONE',  ( 0.000000000000000000, 0.000000000000000000, 1.000000000000000000 ) ) ;
#191 = ORIENTED_EDGE ( 'NONE', *, *, #77, .T. ) ;
#192 = DIRECTION ( 'NONE',  ( 1.000000000000000000, 0.000000000000000000, 0.000000000000000000 ) ) ;
#193 = ADVANCED_FACE ( 'NONE', ( #87 ), #8, .F. ) ;
#194 = LOCAL_TIME ( 11, 35, 59.00000000000000000, #55 ) ;
#195 = PERSON_AND_ORGANIZATION ( #127, #85 ) ;
#196 = VERTEX_POINT ( 'NONE', #209 ) ;
#197 = PERSON_AND_ORGANIZATION_ROLE ( 'creator' ) ;
#198 = APPROVAL_DATE_TIME ( #287, #60 ) ;
#199 = CC_DESIGN_PERSON_AND_ORGANIZATION_ASSIGNMENT ( #9, #265, ( #253 ) ) ;
#200 = AXIS2_PLACEMENT_3D ( 'NONE', #41, #272, #155 ) ;
#201 = VECTOR ( 'NONE', #124, 1000.000000000000000 ) ;
#202 = APPLICATION_PROTOCOL_DEFINITION ( 'international standard', 'config_control_design', 1994, #207 ) ;
#203 = DIRECTION ( 'NONE',  ( 0.000000000000000000, 0.000000000000000000, 1.000000000000000000 ) ) ;
#204 = EDGE_CURVE ( 'NONE', #167, #70, #22, .T. ) ;
#205 = CARTESIAN_POINT ( 'NONE',  ( 0.000000000000000000, 0.000000000000000000, 7.000000000000000000 ) ) ;
#206 = AXIS2_PLACEMENT_3D ( 'NONE', #45, #71, #306 ) ;
#207 = APPLICATION_CONTEXT ( 'configuration controlled 3d designs of mechanical parts and assemblies' ) ;
#208 = PRODUCT ( '6e3b', '6e3b', '', ( #136 ) ) ;
#209 = CARTESIAN_POINT ( 'NONE',  ( -9.000000000000000000, 0.000000000000000000, 7.199999999999984190 ) ) ;
#210 = ADVANCED_FACE ( 'NONE', ( #125 ), #227, .T. ) ;
#211 = PLANE ( 'NONE',  #245 ) ;
#212 = APPROVAL_PERSON_ORGANIZATION ( #195, #60, #54 ) ;
#213 = VERTEX_POINT ( 'NONE', #302 ) ;
#214 = FACE_OUTER_BOUND ( 'NONE', #232, .T. ) ;
#215 = FACE_OUTER_BOUND ( 'NONE', #57, .T. ) ;
#216 = EDGE_LOOP ( 'NONE', ( #111, #147, #240, #133 ) ) ;
#217 = CARTESIAN_POINT ( 'NONE',  ( 12.00000000000000178, 1.469576158976824144E-15, 7.000000000000000000 ) ) ;
#218 = ORIENTED_EDGE ( 'NONE', *, *, #264, .F. ) ;
#219 =( GEOMETRIC_REPRESENTATION_CONTEXT ( 3 ) GLOBAL_UNCERTAINTY_ASSIGNED_CONTEXT ( ( #108 ) ) GLOBAL_UNIT_ASSIGNED_CONTEXT ( ( #278, #257, #161 ) ) REPRESENTATION_CONTEXT ( 'NONE', 'WORKASPACE' ) );
#220 = COORDINATED_UNIVERSAL_TIME_OFFSET ( 1, 0, .AHEAD. ) ;
#221 = AXIS2_PLACEMENT_3D ( 'NONE', #17, #152, #38 ) ;
#222 = CALENDAR_DATE ( 2022, 7, 7 ) ;
#223 = ADVANCED_FACE ( 'NONE', ( #158 ), #254, .F. ) ;
#224 = LOCAL_TIME ( 11, 35, 59.00000000000000000, #100 ) ;
#225 = CARTESIAN_POINT ( 'NONE',  ( 9.000000000000000000, 1.102182119232617714E-15, 322.0000000000000000 ) ) ;
#226 = CARTESIAN_POINT ( 'NONE',  ( 0.000000000000000000, 0.000000000000000000, 322.0000000000000000 ) ) ;
#227 = CYLINDRICAL_SURFACE ( 'NONE', #304, 12.00000000000000178 ) ;
#228 = MANIFOLD_SOLID_BREP ( 'Zaoblit1', #7 ) ;
#229 = TOROIDAL_SURFACE ( 'NONE', #221, 9.199999999999999289, 0.2000000000000000111 ) ;
#230 = CARTESIAN_POINT ( 'NONE',  ( 9.000000000000000000, 1.102182119232617714E-15, 7.199999999999984190 ) ) ;
#231 = DIRECTION ( 'NONE',  ( 1.000000000000000000, 0.000000000000000000, 0.000000000000000000 ) ) ;
#232 = EDGE_LOOP ( 'NONE', ( #288, #285 ) ) ;
#233 = CARTESIAN_POINT ( 'NONE',  ( -9.199999999999999289, 1.126675055215564822E-15, 7.199999999999984190 ) ) ;
#234 = CIRCLE ( 'NONE', #284, 9.000000000000000000 ) ;
#235 = CARTESIAN_POINT ( 'NONE',  ( 0.000000000000000000, 0.000000000000000000, 7.000000000000000000 ) ) ;
#236 = ORIENTED_EDGE ( 'NONE', *, *, #126, .F. ) ;
#237 = CARTESIAN_POINT ( 'NONE',  ( -9.000000000000000000, 0.000000000000000000, 322.0000000000000000 ) ) ;
#238 = ORIENTED_EDGE ( 'NONE', *, *, #173, .T. ) ;
#239 = PERSON_AND_ORGANIZATION ( #127, #85 ) ;
#240 = ORIENTED_EDGE ( 'NONE', *, *, #140, .F. ) ;
#241 = CIRCLE ( 'NONE', #11, 9.199999999999999289 ) ;
#242 = PERSON_AND_ORGANIZATION ( #127, #85 ) ;
#243 = APPROVAL_STATUS ( 'not_yet_approved' ) ;
#244 = PERSON_AND_ORGANIZATION ( #127, #85 ) ;
#245 = AXIS2_PLACEMENT_3D ( 'NONE', #53, #262, #186 ) ;
#246 = EDGE_CURVE ( 'NONE', #196, #274, #271, .T. ) ;
#247 = EDGE_CURVE ( 'NONE', #75, #213, #184, .T. ) ;
#248 = CYLINDRICAL_SURFACE ( 'NONE', #128, 12.00000000000000178 ) ;
#249 = LOCAL_TIME ( 11, 35, 59.00000000000000000, #220 ) ;
#250 = CARTESIAN_POINT ( 'NONE',  ( 9.000000000000000000, 1.102182119232617714E-15, 322.0000000000000000 ) ) ;
#251 = DIRECTION ( 'NONE',  ( -0.000000000000000000, -0.000000000000000000, -1.000000000000000000 ) ) ;
#252 = CARTESIAN_POINT ( 'NONE',  ( 9.199999999999999289, 0.000000000000000000, 7.199999999999984190 ) ) ;
#253 = PRODUCT_DEFINITION_FORMATION_WITH_SPECIFIED_SOURCE ( 'LIBOVOLNÝ', '', #208, .NOT_KNOWN. ) ;
#254 = PLANE ( 'NONE',  #206 ) ;
#255 = ORIENTED_EDGE ( 'NONE', *, *, #99, .F. ) ;
#256 = DIRECTION ( 'NONE',  ( 1.000000000000000000, 0.000000000000000000, 0.000000000000000000 ) ) ;
#257 =( NAMED_UNIT ( * ) PLANE_ANGLE_UNIT ( ) SI_UNIT ( $, .RADIAN. ) );
#258 = ADVANCED_FACE ( 'NONE', ( #286 ), #211, .T. ) ;
#259 = ORIENTED_EDGE ( 'NONE', *, *, #247, .T. ) ;
#260 = APPLICATION_PROTOCOL_DEFINITION ( 'international standard', 'config_control_design', 1994, #154 ) ;
#261 = DIRECTION ( 'NONE',  ( 0.000000000000000000, 0.000000000000000000, 1.000000000000000000 ) ) ;
#262 = DIRECTION ( 'NONE',  ( 0.000000000000000000, 0.000000000000000000, 1.000000000000000000 ) ) ;
#263 = DATE_TIME_ROLE ( 'creation_date' ) ;
#264 = EDGE_CURVE ( 'NONE', #269, #185, #42, .T. ) ;
#265 = PERSON_AND_ORGANIZATION_ROLE ( 'design_supplier' ) ;
#266 = CC_DESIGN_PERSON_AND_ORGANIZATION_ASSIGNMENT ( #242, #197, ( #253 ) ) ;
#267 = CC_DESIGN_APPROVAL ( #10, ( #28 ) ) ;
#268 = DIRECTION ( 'NONE',  ( -1.000000000000000000, 0.000000000000000000, 0.000000000000000000 ) ) ;
#269 = VERTEX_POINT ( 'NONE', #237 ) ;
#270 = DIRECTION ( 'NONE',  ( -1.000000000000000000, 0.000000000000000000, 0.000000000000000000 ) ) ;
#271 = CIRCLE ( 'NONE', #61, 0.2000000000000005107 ) ;
#272 = DIRECTION ( 'NONE',  ( 0.000000000000000000, 0.000000000000000000, 1.000000000000000000 ) ) ;
#273 = DIRECTION ( 'NONE',  ( -1.000000000000000000, 0.000000000000000000, 0.000000000000000000 ) ) ;
#274 = VERTEX_POINT ( 'NONE', #116 ) ;
#275 = CC_DESIGN_DATE_AND_TIME_ASSIGNMENT ( #79, #263, ( #28 ) ) ;
#276 = DIRECTION ( 'NONE',  ( 1.000000000000000000, 0.000000000000000000, 0.000000000000000000 ) ) ;
#277 = EDGE_LOOP ( 'NONE', ( #150, #164 ) ) ;
#278 =( LENGTH_UNIT ( ) NAMED_UNIT ( * ) SI_UNIT ( .MILLI., .METRE. ) );
#279 = ORIENTED_EDGE ( 'NONE', *, *, #173, .F. ) ;
#280 = LINE ( 'NONE', #217, #157 ) ;
#281 = DIRECTION ( 'NONE',  ( -0.000000000000000000, -0.000000000000000000, -1.000000000000000000 ) ) ;
#282 = DIRECTION ( 'NONE',  ( 1.000000000000000000, 0.000000000000000000, 0.000000000000000000 ) ) ;
#283 = CIRCLE ( 'NONE', #151, 12.00000000000000178 ) ;
#284 = AXIS2_PLACEMENT_3D ( 'NONE', #295, #130, #231 ) ;
#285 = ORIENTED_EDGE ( 'NONE', *, *, #204, .T. ) ;
#286 = FACE_OUTER_BOUND ( 'NONE', #89, .T. ) ;
#287 = DATE_AND_TIME ( #175, #224 ) ;
#288 = ORIENTED_EDGE ( 'NONE', *, *, #51, .T. ) ;
#289 = DATE_AND_TIME ( #6, #249 ) ;
#290 = CALENDAR_DATE ( 2022, 7, 7 ) ;
#291 = AXIS2_PLACEMENT_3D ( 'NONE', #252, #13, #64 ) ;
#292 = APPROVAL_ROLE ( '' ) ;
#293 = AXIS2_PLACEMENT_3D ( 'NONE', #113, #281, #25 ) ;
#294 = ADVANCED_FACE ( 'NONE', ( #165, #214 ), #138, .T. ) ;
#295 = CARTESIAN_POINT ( 'NONE',  ( 0.000000000000000000, 0.000000000000000000, 7.199999999999984190 ) ) ;
#296 = LINE ( 'NONE', #63, #122 ) ;
#297 = FACE_OUTER_BOUND ( 'NONE', #118, .T. ) ;
#298 = CC_DESIGN_APPROVAL ( #103, ( #96 ) ) ;
#299 = EDGE_CURVE ( 'NONE', #167, #213, #280, .T. ) ;
#300 = CARTESIAN_POINT ( 'NONE',  ( 12.00000000000000178, 1.469576158976824144E-15, 7.000000000000000000 ) ) ;
#301 = DESIGN_CONTEXT ( 'detailed design', #207, 'design' ) ;
#302 = CARTESIAN_POINT ( 'NONE',  ( 12.00000000000000178, 1.469576158976824144E-15, 0.000000000000000000 ) ) ;
#303 = DIRECTION ( 'NONE',  ( 0.000000000000000000, 0.000000000000000000, 1.000000000000000000 ) ) ;
#304 = AXIS2_PLACEMENT_3D ( 'NONE', #14, #181, #273 ) ;
#305 = ORIENTED_EDGE ( 'NONE', *, *, #83, .F. ) ;
#306 = DIRECTION ( 'NONE',  ( 1.000000000000000000, 0.000000000000000000, -0.000000000000000000 ) ) ;
#307 = ORIENTED_EDGE ( 'NONE', *, *, #264, .T. ) ;
ENDSEC;
END-ISO-10303-21;
