ISO-10303-21;
HEADER;
FILE_DESCRIPTION (( 'STEP AP203' ),
    '1' );
FILE_NAME ('4d4d.STEP',
    '2022-07-07T10:21:09',
    ( '' ),
    ( '' ),
    'SwSTEP 2.0',
    'SolidWorks 2019',
    '' );
FILE_SCHEMA (( 'CONFIG_CONTROL_DESIGN' ));
ENDSEC;

DATA;
#1 = VECTOR ( 'NONE', #82, 1000.000000000000000 ) ;
#2 = SECURITY_CLASSIFICATION_LEVEL ( 'unclassified' ) ;
#3 = APPROVAL_ROLE ( '' ) ;
#4 = CIRCLE ( 'NONE', #77, 0.2000000000000000944 ) ;
#5 = AXIS2_PLACEMENT_3D ( 'NONE', #22, #48, #136 ) ;
#6 = VERTEX_POINT ( 'NONE', #173 ) ;
#7 = FACE_BOUND ( 'NONE', #262, .T. ) ;
#8 = ORIENTED_EDGE ( 'NONE', *, *, #190, .F. ) ;
#9 = ORIENTED_EDGE ( 'NONE', *, *, #186, .T. ) ;
#10 = CARTESIAN_POINT ( 'NONE',  ( 0.000000000000000000, 0.000000000000000000, 3.000000000000000000 ) ) ;
#11 = AXIS2_PLACEMENT_3D ( 'NONE', #18, #87, #303 ) ;
#12 = VECTOR ( 'NONE', #175, 1000.000000000000000 ) ;
#13 = FACE_OUTER_BOUND ( 'NONE', #145, .T. ) ;
#14 = ORIENTED_EDGE ( 'NONE', *, *, #268, .T. ) ;
#15 = FACE_OUTER_BOUND ( 'NONE', #273, .T. ) ;
#16 = CARTESIAN_POINT ( 'NONE',  ( 0.000000000000000000, 0.000000000000000000, 0.000000000000000000 ) ) ;
#17 = EDGE_CURVE ( 'NONE', #168, #170, #4, .T. ) ;
#18 = CARTESIAN_POINT ( 'NONE',  ( 0.000000000000000000, 0.000000000000000000, 3.000000000000000000 ) ) ;
#19 = APPROVAL_DATE_TIME ( #86, #281 ) ;
#20 = CC_DESIGN_PERSON_AND_ORGANIZATION_ASSIGNMENT ( #95, #137, ( #35 ) ) ;
#21 = DIRECTION ( 'NONE',  ( 1.000000000000000000, 0.000000000000000000, -0.000000000000000000 ) ) ;
#22 = CARTESIAN_POINT ( 'NONE',  ( 0.000000000000000000, 0.000000000000000000, 633.0000000000000000 ) ) ;
#23 = FACE_OUTER_BOUND ( 'NONE', #33, .T. ) ;
#24 = AXIS2_PLACEMENT_3D ( 'NONE', #161, #259, #307 ) ;
#25 = DATE_AND_TIME ( #93, #96 ) ;
#26 = CC_DESIGN_PERSON_AND_ORGANIZATION_ASSIGNMENT ( #184, #233, ( #231 ) ) ;
#27 = SECURITY_CLASSIFICATION ( '', '', #2 ) ;
#28 = PERSON_AND_ORGANIZATION ( #94, #277 ) ;
#29 = DIRECTION ( 'NONE',  ( 1.000000000000000000, 0.000000000000000000, 0.000000000000000000 ) ) ;
#30 = AXIS2_PLACEMENT_3D ( 'NONE', #43, #207, #84 ) ;
#31 = ADVANCED_FACE ( 'NONE', ( #7, #55 ), #147, .T. ) ;
#32 = ORIENTED_EDGE ( 'NONE', *, *, #91, .T. ) ;
#33 = EDGE_LOOP ( 'NONE', ( #193, #222, #34, #73 ) ) ;
#34 = ORIENTED_EDGE ( 'NONE', *, *, #202, .T. ) ;
#35 = PRODUCT_DEFINITION_FORMATION_WITH_SPECIFIED_SOURCE ( 'LIBOVOLNÝ', '', #231, .NOT_KNOWN. ) ;
#36 = CARTESIAN_POINT ( 'NONE',  ( 0.000000000000000000, 0.000000000000000000, 633.0000000000000000 ) ) ;
#37 = EDGE_LOOP ( 'NONE', ( #122, #14 ) ) ;
#38 = DIRECTION ( 'NONE',  ( 0.000000000000000000, 0.000000000000000000, 1.000000000000000000 ) ) ;
#39 = CIRCLE ( 'NONE', #113, 0.2000000000000000944 ) ;
#40 = CARTESIAN_POINT ( 'NONE',  ( 0.000000000000000000, 0.000000000000000000, 3.000000000000000000 ) ) ;
#41 = EDGE_CURVE ( 'NONE', #162, #79, #305, .T. ) ;
#42 = DIRECTION ( 'NONE',  ( -0.000000000000000000, -0.000000000000000000, -1.000000000000000000 ) ) ;
#43 = CARTESIAN_POINT ( 'NONE',  ( 0.000000000000000000, 0.000000000000000000, 3.000000000000000000 ) ) ;
#44 = CARTESIAN_POINT ( 'NONE',  ( 0.000000000000000000, 0.000000000000000000, 3.000000000000000000 ) ) ;
#45 = APPLICATION_PROTOCOL_DEFINITION ( 'international standard', 'config_control_design', 1994, #66 ) ;
#46 = APPLICATION_CONTEXT ( 'configuration controlled 3d designs of mechanical parts and assemblies' ) ;
#47 =( LENGTH_UNIT ( ) NAMED_UNIT ( * ) SI_UNIT ( .MILLI., .METRE. ) );
#48 = DIRECTION ( 'NONE',  ( 0.000000000000000000, 0.000000000000000000, 1.000000000000000000 ) ) ;
#49 = CALENDAR_DATE ( 2022, 7, 7 ) ;
#50 = EDGE_CURVE ( 'NONE', #79, #162, #119, .T. ) ;
#51 = CIRCLE ( 'NONE', #191, 2.250000000000000000 ) ;
#52 = DATE_AND_TIME ( #71, #135 ) ;
#53 = ORIENTED_EDGE ( 'NONE', *, *, #258, .F. ) ;
#54 = ORIENTED_EDGE ( 'NONE', *, *, #17, .T. ) ;
#55 = FACE_OUTER_BOUND ( 'NONE', #225, .T. ) ;
#56 = CARTESIAN_POINT ( 'NONE',  ( -4.000000000000000000, 0.000000000000000000, 0.000000000000000000 ) ) ;
#57 = DIRECTION ( 'NONE',  ( -1.000000000000000000, 1.224646799147353207E-16, 0.000000000000000000 ) ) ;
#58 = APPROVAL_PERSON_ORGANIZATION ( #88, #281, #285 ) ;
#59 = FACE_OUTER_BOUND ( 'NONE', #219, .T. ) ;
#60 = ADVANCED_FACE ( 'NONE', ( #64 ), #155, .T. ) ;
#61 = DIRECTION ( 'NONE',  ( 1.000000000000000000, 0.000000000000000000, 0.000000000000000000 ) ) ;
#62 = AXIS2_PLACEMENT_3D ( 'NONE', #40, #42, #151 ) ;
#63 = CARTESIAN_POINT ( 'NONE',  ( 0.000000000000000000, 0.000000000000000000, 3.199999999999980638 ) ) ;
#64 = FACE_OUTER_BOUND ( 'NONE', #189, .T. ) ;
#65 = DATE_TIME_ROLE ( 'creation_date' ) ;
#66 = APPLICATION_CONTEXT ( 'configuration controlled 3d designs of mechanical parts and assemblies' ) ;
#67 = LINE ( 'NONE', #228, #152 ) ;
#68 = CALENDAR_DATE ( 2022, 7, 7 ) ;
#69 = ADVANCED_FACE ( 'NONE', ( #109 ), #306, .T. ) ;
#70 = ORIENTED_EDGE ( 'NONE', *, *, #302, .F. ) ;
#71 = CALENDAR_DATE ( 2022, 7, 7 ) ;
#72 = DATE_AND_TIME ( #49, #234 ) ;
#73 = ORIENTED_EDGE ( 'NONE', *, *, #258, .T. ) ;
#74 = APPROVAL ( #214, 'NEURÈENÝ' ) ;
#75 = ORIENTED_EDGE ( 'NONE', *, *, #17, .F. ) ;
#76 = VERTEX_POINT ( 'NONE', #129 ) ;
#77 = AXIS2_PLACEMENT_3D ( 'NONE', #275, #150, #57 ) ;
#78 = DIRECTION ( 'NONE',  ( 1.000000000000000000, 0.000000000000000000, 0.000000000000000000 ) ) ;
#79 = VERTEX_POINT ( 'NONE', #179 ) ;
#80 = ORIENTED_EDGE ( 'NONE', *, *, #215, .T. ) ;
#81 = CARTESIAN_POINT ( 'NONE',  ( 2.250000000000000000, 2.755455298081544285E-16, 633.0000000000000000 ) ) ;
#82 = DIRECTION ( 'NONE',  ( -0.000000000000000000, -0.000000000000000000, -1.000000000000000000 ) ) ;
#83 = LINE ( 'NONE', #278, #12 ) ;
#84 = DIRECTION ( 'NONE',  ( 1.000000000000000000, 0.000000000000000000, 0.000000000000000000 ) ) ;
#85 = AXIS2_PLACEMENT_3D ( 'NONE', #127, #38, #226 ) ;
#86 = DATE_AND_TIME ( #68, #164 ) ;
#87 = DIRECTION ( 'NONE',  ( 0.000000000000000000, 0.000000000000000000, 1.000000000000000000 ) ) ;
#88 = PERSON_AND_ORGANIZATION ( #94, #277 ) ;
#89 = AXIS2_PLACEMENT_3D ( 'NONE', #10, #299, #78 ) ;
#90 = EDGE_CURVE ( 'NONE', #79, #76, #67, .T. ) ;
#91 = EDGE_CURVE ( 'NONE', #170, #272, #241, .T. ) ;
#92 = PERSON_AND_ORGANIZATION ( #94, #277 ) ;
#93 = CALENDAR_DATE ( 2022, 7, 7 ) ;
#94 = PERSON ( 'NEURÈENÝ', 'NEURÈENÝ', 'NEURÈENÝ', ('NEURÈENÝ'), ('NEURÈENÝ'), ('NEURÈENÝ') ) ;
#95 = PERSON_AND_ORGANIZATION ( #94, #277 ) ;
#96 = LOCAL_TIME ( 12, 21, 9.000000000000000000, #265 ) ;
#97 = AXIS2_PLACEMENT_3D ( 'NONE', #36, #105, #199 ) ;
#98 = EDGE_CURVE ( 'NONE', #293, #298, #267, .T. ) ;
#99 = ORIENTED_EDGE ( 'NONE', *, *, #190, .T. ) ;
#100 = ORIENTED_EDGE ( 'NONE', *, *, #91, .F. ) ;
#101 = EDGE_LOOP ( 'NONE', ( #197, #70 ) ) ;
#102 = ORIENTED_EDGE ( 'NONE', *, *, #90, .F. ) ;
#103 = DIRECTION ( 'NONE',  ( 1.000000000000000000, 0.000000000000000000, 0.000000000000000000 ) ) ;
#104 = CARTESIAN_POINT ( 'NONE',  ( 0.000000000000000000, 0.000000000000000000, 633.0000000000000000 ) ) ;
#105 = DIRECTION ( 'NONE',  ( 0.000000000000000000, 0.000000000000000000, 1.000000000000000000 ) ) ;
#106 = DIRECTION ( 'NONE',  ( 0.000000000000000000, 0.000000000000000000, 1.000000000000000000 ) ) ;
#107 = DIRECTION ( 'NONE',  ( -0.000000000000000000, -0.000000000000000000, -1.000000000000000000 ) ) ;
#108 = PERSON_AND_ORGANIZATION_ROLE ( 'creator' ) ;
#109 = FACE_OUTER_BOUND ( 'NONE', #220, .T. ) ;
#110 = MECHANICAL_CONTEXT ( 'NONE', #46, 'mechanical' ) ;
#111 = CARTESIAN_POINT ( 'NONE',  ( 2.250000000000000000, 2.755455298081544285E-16, 633.0000000000000000 ) ) ;
#112 = DIRECTION ( 'NONE',  ( 0.000000000000000000, 0.000000000000000000, 1.000000000000000000 ) ) ;
#113 = AXIS2_PLACEMENT_3D ( 'NONE', #130, #124, #223 ) ;
#114 = PERSON_AND_ORGANIZATION ( #94, #277 ) ;
#115 = LOCAL_TIME ( 12, 21, 9.000000000000000000, #208 ) ;
#116 = CC_DESIGN_SECURITY_CLASSIFICATION ( #27, ( #35 ) ) ;
#117 = APPROVAL_DATE_TIME ( #52, #74 ) ;
#118 = CC_DESIGN_APPROVAL ( #270, ( #35 ) ) ;
#119 = CIRCLE ( 'NONE', #11, 4.000000000000000000 ) ;
#120 = ORIENTED_EDGE ( 'NONE', *, *, #260, .T. ) ;
#121 = ORIENTED_EDGE ( 'NONE', *, *, #41, .T. ) ;
#122 = ORIENTED_EDGE ( 'NONE', *, *, #98, .T. ) ;
#123 = CARTESIAN_POINT ( 'NONE',  ( -2.449999999999999734, 3.000384657911015370E-16, 2.999999999999990674 ) ) ;
#124 = DIRECTION ( 'NONE',  ( 0.000000000000000000, -1.000000000000000000, 0.000000000000000000 ) ) ;
#125 = VERTEX_POINT ( 'NONE', #56 ) ;
#126 = TOROIDAL_SURFACE ( 'NONE', #143, 2.449999999999999734, 0.2000000000000000111 ) ;
#127 = CARTESIAN_POINT ( 'NONE',  ( 0.000000000000000000, 0.000000000000000000, 3.199999999999980638 ) ) ;
#128 = FACE_OUTER_BOUND ( 'NONE', #101, .T. ) ;
#129 = CARTESIAN_POINT ( 'NONE',  ( 4.000000000000000000, 4.898587196589412829E-16, 0.000000000000000000 ) ) ;
#130 = CARTESIAN_POINT ( 'NONE',  ( 2.449999999999999734, 0.000000000000000000, 3.199999999999980638 ) ) ;
#131 = CARTESIAN_POINT ( 'NONE',  ( 0.000000000000000000, 0.000000000000000000, 633.0000000000000000 ) ) ;
#132 = DIRECTION ( 'NONE',  ( 1.000000000000000000, 0.000000000000000000, 0.000000000000000000 ) ) ;
#133 = PRODUCT_RELATED_PRODUCT_CATEGORY ( 'detail', '', ( #231 ) ) ;
#134 = CARTESIAN_POINT ( 'NONE',  ( 0.000000000000000000, 0.000000000000000000, 3.000000000000000000 ) ) ;
#135 = LOCAL_TIME ( 12, 21, 9.000000000000000000, #188 ) ;
#136 = DIRECTION ( 'NONE',  ( 1.000000000000000000, 0.000000000000000000, -0.000000000000000000 ) ) ;
#137 = PERSON_AND_ORGANIZATION_ROLE ( 'design_supplier' ) ;
#138 = TOROIDAL_SURFACE ( 'NONE', #85, 2.449999999999999734, 0.2000000000000000111 ) ;
#139 = MANIFOLD_SOLID_BREP ( 'Zaoblit1', #240 ) ;
#140 = ORIENTED_EDGE ( 'NONE', *, *, #144, .T. ) ;
#141 = DATE_TIME_ROLE ( 'classification_date' ) ;
#142 = AXIS2_PLACEMENT_3D ( 'NONE', #284, #229, #255 ) ;
#143 = AXIS2_PLACEMENT_3D ( 'NONE', #249, #174, #103 ) ;
#144 = EDGE_CURVE ( 'NONE', #298, #6, #276, .T. ) ;
#145 = EDGE_LOOP ( 'NONE', ( #198, #169, #244, #297 ) ) ;
#146 = ORIENTED_EDGE ( 'NONE', *, *, #260, .F. ) ;
#147 = PLANE ( 'NONE',  #296 ) ;
#148 = LINE ( 'NONE', #279, #1 ) ;
#149 = CC_DESIGN_APPROVAL ( #281, ( #218 ) ) ;
#150 = DIRECTION ( 'NONE',  ( 1.224646799147353207E-16, 1.000000000000000000, -0.000000000000000000 ) ) ;
#151 = DIRECTION ( 'NONE',  ( -1.000000000000000000, 0.000000000000000000, 0.000000000000000000 ) ) ;
#152 = VECTOR ( 'NONE', #107, 1000.000000000000000 ) ;
#153 = CC_DESIGN_DATE_AND_TIME_ASSIGNMENT ( #283, #65, ( #218 ) ) ;
#154 = DIRECTION ( 'NONE',  ( 1.000000000000000000, 0.000000000000000000, 0.000000000000000000 ) ) ;
#155 = CYLINDRICAL_SURFACE ( 'NONE', #166, 2.250000000000000000 ) ;
#156 = PERSON_AND_ORGANIZATION ( #94, #277 ) ;
#157 = DIRECTION ( 'NONE',  ( -1.000000000000000000, 0.000000000000000000, 0.000000000000000000 ) ) ;
#158 = PLANE ( 'NONE',  #5 ) ;
#159 = AXIS2_PLACEMENT_3D ( 'NONE', #235, #232, #29 ) ;
#160 = CARTESIAN_POINT ( 'NONE',  ( 2.449999999999999734, 0.000000000000000000, 2.999999999999990674 ) ) ;
#161 = CARTESIAN_POINT ( 'NONE',  ( 0.000000000000000000, 0.000000000000000000, 633.0000000000000000 ) ) ;
#162 = VERTEX_POINT ( 'NONE', #247 ) ;
#163 = ADVANCED_BREP_SHAPE_REPRESENTATION ( '4d4d', ( #139, #205 ), #251 ) ;
#164 = LOCAL_TIME ( 12, 21, 9.000000000000000000, #211 ) ;
#165 = COORDINATED_UNIVERSAL_TIME_OFFSET ( 1, 0, .AHEAD. ) ;
#166 = AXIS2_PLACEMENT_3D ( 'NONE', #131, #253, #282 ) ;
#167 = AXIS2_PLACEMENT_3D ( 'NONE', #177, #227, #204 ) ;
#168 = VERTEX_POINT ( 'NONE', #203 ) ;
#169 = ORIENTED_EDGE ( 'NONE', *, *, #90, .T. ) ;
#170 = VERTEX_POINT ( 'NONE', #123 ) ;
#171 = DESIGN_CONTEXT ( 'detailed design', #66, 'design' ) ;
#172 = DIRECTION ( 'NONE',  ( 0.000000000000000000, 0.000000000000000000, 1.000000000000000000 ) ) ;
#173 = CARTESIAN_POINT ( 'NONE',  ( 2.250000000000000000, 2.755455298081544285E-16, 3.199999999999980638 ) ) ;
#174 = DIRECTION ( 'NONE',  ( 0.000000000000000000, 0.000000000000000000, 1.000000000000000000 ) ) ;
#175 = DIRECTION ( 'NONE',  ( -0.000000000000000000, -0.000000000000000000, -1.000000000000000000 ) ) ;
#176 = ADVANCED_FACE ( 'NONE', ( #59 ), #126, .F. ) ;
#177 = CARTESIAN_POINT ( 'NONE',  ( 0.000000000000000000, 0.000000000000000000, 0.000000000000000000 ) ) ;
#178 = CIRCLE ( 'NONE', #196, 2.250000000000000000 ) ;
#179 = CARTESIAN_POINT ( 'NONE',  ( 4.000000000000000000, 4.898587196589412829E-16, 3.000000000000000000 ) ) ;
#180 = CC_DESIGN_PERSON_AND_ORGANIZATION_ASSIGNMENT ( #92, #264, ( #35 ) ) ;
#181 = FACE_OUTER_BOUND ( 'NONE', #37, .T. ) ;
#182 = DIRECTION ( 'NONE',  ( -0.000000000000000000, -0.000000000000000000, -1.000000000000000000 ) ) ;
#183 =( NAMED_UNIT ( * ) SI_UNIT ( $, .STERADIAN. ) SOLID_ANGLE_UNIT ( ) );
#184 = PERSON_AND_ORGANIZATION ( #94, #277 ) ;
#185 = APPROVAL_STATUS ( 'not_yet_approved' ) ;
#186 = EDGE_CURVE ( 'NONE', #272, #170, #286, .T. ) ;
#187 = ADVANCED_FACE ( 'NONE', ( #15 ), #138, .F. ) ;
#188 = COORDINATED_UNIVERSAL_TIME_OFFSET ( 1, 0, .AHEAD. ) ;
#189 = EDGE_LOOP ( 'NONE', ( #248, #140, #99, #246 ) ) ;
#190 = EDGE_CURVE ( 'NONE', #6, #168, #51, .T. ) ;
#191 = AXIS2_PLACEMENT_3D ( 'NONE', #195, #172, #274 ) ;
#192 = APPROVAL_PERSON_ORGANIZATION ( #114, #74, #266 ) ;
#193 = ORIENTED_EDGE ( 'NONE', *, *, #144, .F. ) ;
#194 = ORIENTED_EDGE ( 'NONE', *, *, #41, .F. ) ;
#195 = CARTESIAN_POINT ( 'NONE',  ( 0.000000000000000000, 0.000000000000000000, 3.199999999999980638 ) ) ;
#196 = AXIS2_PLACEMENT_3D ( 'NONE', #63, #252, #154 ) ;
#197 = ORIENTED_EDGE ( 'NONE', *, *, #215, .F. ) ;
#198 = ORIENTED_EDGE ( 'NONE', *, *, #50, .F. ) ;
#199 = DIRECTION ( 'NONE',  ( 1.000000000000000000, 0.000000000000000000, 0.000000000000000000 ) ) ;
#200 = DIRECTION ( 'NONE',  ( 0.000000000000000000, 0.000000000000000000, 1.000000000000000000 ) ) ;
#201 = EDGE_CURVE ( 'NONE', #162, #125, #148, .T. ) ;
#202 = EDGE_CURVE ( 'NONE', #293, #168, #83, .T. ) ;
#203 = CARTESIAN_POINT ( 'NONE',  ( -2.250000000000000000, 0.000000000000000000, 3.199999999999980638 ) ) ;
#204 = DIRECTION ( 'NONE',  ( 1.000000000000000000, 0.000000000000000000, 0.000000000000000000 ) ) ;
#205 = AXIS2_PLACEMENT_3D ( 'NONE', #256, #112, #132 ) ;
#206 = CC_DESIGN_PERSON_AND_ORGANIZATION_ASSIGNMENT ( #216, #236, ( #27 ) ) ;
#207 = DIRECTION ( 'NONE',  ( -0.000000000000000000, -0.000000000000000000, -1.000000000000000000 ) ) ;
#208 = COORDINATED_UNIVERSAL_TIME_OFFSET ( 1, 0, .AHEAD. ) ;
#209 = PRODUCT_DEFINITION_SHAPE ( 'NONE', 'NONE',  #218 ) ;
#210 = DIRECTION ( 'NONE',  ( 0.000000000000000000, 0.000000000000000000, 1.000000000000000000 ) ) ;
#211 = COORDINATED_UNIVERSAL_TIME_OFFSET ( 1, 0, .AHEAD. ) ;
#212 = CYLINDRICAL_SURFACE ( 'NONE', #24, 2.250000000000000000 ) ;
#213 = CIRCLE ( 'NONE', #238, 2.250000000000000000 ) ;
#214 = APPROVAL_STATUS ( 'not_yet_approved' ) ;
#215 = EDGE_CURVE ( 'NONE', #125, #76, #290, .T. ) ;
#216 = PERSON_AND_ORGANIZATION ( #94, #277 ) ;
#217 = CIRCLE ( 'NONE', #159, 4.000000000000000000 ) ;
#218 = PRODUCT_DEFINITION ( 'NEZNÁMÝ', '', #35, #171 ) ;
#219 = EDGE_LOOP ( 'NONE', ( #75, #8, #120, #100 ) ) ;
#220 = EDGE_LOOP ( 'NONE', ( #102, #194, #292, #80 ) ) ;
#221 = CC_DESIGN_APPROVAL ( #74, ( #27 ) ) ;
#222 = ORIENTED_EDGE ( 'NONE', *, *, #98, .F. ) ;
#223 = DIRECTION ( 'NONE',  ( 0.000000000000000000, 0.000000000000000000, -1.000000000000000000 ) ) ;
#224 = AXIS2_PLACEMENT_3D ( 'NONE', #16, #106, #301 ) ;
#225 = EDGE_LOOP ( 'NONE', ( #121, #245 ) ) ;
#226 = DIRECTION ( 'NONE',  ( 1.000000000000000000, 0.000000000000000000, 0.000000000000000000 ) ) ;
#227 = DIRECTION ( 'NONE',  ( 0.000000000000000000, 0.000000000000000000, 1.000000000000000000 ) ) ;
#228 = CARTESIAN_POINT ( 'NONE',  ( 4.000000000000000000, 4.898587196589412829E-16, 3.000000000000000000 ) ) ;
#229 = DIRECTION ( 'NONE',  ( 0.000000000000000000, 0.000000000000000000, 1.000000000000000000 ) ) ;
#230 = APPLICATION_PROTOCOL_DEFINITION ( 'international standard', 'config_control_design', 1994, #46 ) ;
#231 = PRODUCT ( '4d4d', '4d4d', '', ( #110 ) ) ;
#232 = DIRECTION ( 'NONE',  ( 0.000000000000000000, 0.000000000000000000, 1.000000000000000000 ) ) ;
#233 = PERSON_AND_ORGANIZATION_ROLE ( 'design_owner' ) ;
#234 = LOCAL_TIME ( 12, 21, 9.000000000000000000, #165 ) ;
#235 = CARTESIAN_POINT ( 'NONE',  ( 0.000000000000000000, 0.000000000000000000, 0.000000000000000000 ) ) ;
#236 = PERSON_AND_ORGANIZATION_ROLE ( 'classification_officer' ) ;
#237 = ADVANCED_FACE ( 'NONE', ( #13 ), #300, .T. ) ;
#238 = AXIS2_PLACEMENT_3D ( 'NONE', #104, #200, #61 ) ;
#239 = APPROVAL_STATUS ( 'not_yet_approved' ) ;
#240 = CLOSED_SHELL ( 'NONE', ( #187, #60, #237, #69, #31, #243, #269, #289, #176 ) ) ;
#241 = CIRCLE ( 'NONE', #30, 2.449999999999999734 ) ;
#242 = CC_DESIGN_PERSON_AND_ORGANIZATION_ASSIGNMENT ( #156, #108, ( #218 ) ) ;
#243 = ADVANCED_FACE ( 'NONE', ( #128 ), #250, .F. ) ;
#244 = ORIENTED_EDGE ( 'NONE', *, *, #302, .T. ) ;
#245 = ORIENTED_EDGE ( 'NONE', *, *, #50, .T. ) ;
#246 = ORIENTED_EDGE ( 'NONE', *, *, #202, .F. ) ;
#247 = CARTESIAN_POINT ( 'NONE',  ( -4.000000000000000000, 0.000000000000000000, 3.000000000000000000 ) ) ;
#248 = ORIENTED_EDGE ( 'NONE', *, *, #268, .F. ) ;
#249 = CARTESIAN_POINT ( 'NONE',  ( 0.000000000000000000, 0.000000000000000000, 3.199999999999980638 ) ) ;
#250 = PLANE ( 'NONE',  #224 ) ;
#251 =( GEOMETRIC_REPRESENTATION_CONTEXT ( 3 ) GLOBAL_UNCERTAINTY_ASSIGNED_CONTEXT ( ( #294 ) ) GLOBAL_UNIT_ASSIGNED_CONTEXT ( ( #47, #257, #183 ) ) REPRESENTATION_CONTEXT ( 'NONE', 'WORKASPACE' ) );
#252 = DIRECTION ( 'NONE',  ( 0.000000000000000000, 0.000000000000000000, 1.000000000000000000 ) ) ;
#253 = DIRECTION ( 'NONE',  ( -0.000000000000000000, -0.000000000000000000, -1.000000000000000000 ) ) ;
#254 = CARTESIAN_POINT ( 'NONE',  ( -2.250000000000000000, 0.000000000000000000, 633.0000000000000000 ) ) ;
#255 = DIRECTION ( 'NONE',  ( 1.000000000000000000, 0.000000000000000000, 0.000000000000000000 ) ) ;
#256 = CARTESIAN_POINT ( 'NONE',  ( 0.000000000000000000, 0.000000000000000000, 0.000000000000000000 ) ) ;
#257 =( NAMED_UNIT ( * ) PLANE_ANGLE_UNIT ( ) SI_UNIT ( $, .RADIAN. ) );
#258 = EDGE_CURVE ( 'NONE', #168, #6, #178, .T. ) ;
#259 = DIRECTION ( 'NONE',  ( -0.000000000000000000, -0.000000000000000000, -1.000000000000000000 ) ) ;
#260 = EDGE_CURVE ( 'NONE', #6, #272, #39, .T. ) ;
#261 = CC_DESIGN_DATE_AND_TIME_ASSIGNMENT ( #25, #141, ( #27 ) ) ;
#262 = EDGE_LOOP ( 'NONE', ( #9, #32 ) ) ;
#263 = AXIS2_PLACEMENT_3D ( 'NONE', #44, #182, #157 ) ;
#264 = PERSON_AND_ORGANIZATION_ROLE ( 'creator' ) ;
#265 = COORDINATED_UNIVERSAL_TIME_OFFSET ( 1, 0, .AHEAD. ) ;
#266 = APPROVAL_ROLE ( '' ) ;
#267 = CIRCLE ( 'NONE', #97, 2.250000000000000000 ) ;
#268 = EDGE_CURVE ( 'NONE', #298, #293, #213, .T. ) ;
#269 = ADVANCED_FACE ( 'NONE', ( #23 ), #212, .T. ) ;
#270 = APPROVAL ( #239, 'NEURÈENÝ' ) ;
#271 = ORIENTED_EDGE ( 'NONE', *, *, #186, .F. ) ;
#272 = VERTEX_POINT ( 'NONE', #160 ) ;
#273 = EDGE_LOOP ( 'NONE', ( #53, #54, #271, #146 ) ) ;
#274 = DIRECTION ( 'NONE',  ( 1.000000000000000000, 0.000000000000000000, 0.000000000000000000 ) ) ;
#275 = CARTESIAN_POINT ( 'NONE',  ( -2.449999999999999734, 3.000384657911015370E-16, 3.199999999999980638 ) ) ;
#276 = LINE ( 'NONE', #81, #280 ) ;
#277 = ORGANIZATION ( 'NEURÈENÝ', 'NEURÈENÝ', '' ) ;
#278 = CARTESIAN_POINT ( 'NONE',  ( -2.250000000000000000, 0.000000000000000000, 633.0000000000000000 ) ) ;
#279 = CARTESIAN_POINT ( 'NONE',  ( -4.000000000000000000, 0.000000000000000000, 3.000000000000000000 ) ) ;
#280 = VECTOR ( 'NONE', #295, 1000.000000000000000 ) ;
#281 = APPROVAL ( #185, 'NEURÈENÝ' ) ;
#282 = DIRECTION ( 'NONE',  ( -1.000000000000000000, 0.000000000000000000, 0.000000000000000000 ) ) ;
#283 = DATE_AND_TIME ( #304, #115 ) ;
#284 = CARTESIAN_POINT ( 'NONE',  ( 0.000000000000000000, 0.000000000000000000, 3.000000000000000000 ) ) ;
#285 = APPROVAL_ROLE ( '' ) ;
#286 = CIRCLE ( 'NONE', #89, 2.449999999999999734 ) ;
#287 = SHAPE_DEFINITION_REPRESENTATION ( #209, #163 ) ;
#288 = APPROVAL_DATE_TIME ( #72, #270 ) ;
#289 = ADVANCED_FACE ( 'NONE', ( #181 ), #158, .T. ) ;
#290 = CIRCLE ( 'NONE', #167, 4.000000000000000000 ) ;
#291 = APPROVAL_PERSON_ORGANIZATION ( #28, #270, #3 ) ;
#292 = ORIENTED_EDGE ( 'NONE', *, *, #201, .T. ) ;
#293 = VERTEX_POINT ( 'NONE', #254 ) ;
#294 = UNCERTAINTY_MEASURE_WITH_UNIT (LENGTH_MEASURE( 1.000000000000000082E-05 ), #47, 'distance_accuracy_value', 'NONE');
#295 = DIRECTION ( 'NONE',  ( -0.000000000000000000, -0.000000000000000000, -1.000000000000000000 ) ) ;
#296 = AXIS2_PLACEMENT_3D ( 'NONE', #134, #210, #21 ) ;
#297 = ORIENTED_EDGE ( 'NONE', *, *, #201, .F. ) ;
#298 = VERTEX_POINT ( 'NONE', #111 ) ;
#299 = DIRECTION ( 'NONE',  ( -0.000000000000000000, -0.000000000000000000, -1.000000000000000000 ) ) ;
#300 = CYLINDRICAL_SURFACE ( 'NONE', #62, 4.000000000000000000 ) ;
#301 = DIRECTION ( 'NONE',  ( 1.000000000000000000, 0.000000000000000000, -0.000000000000000000 ) ) ;
#302 = EDGE_CURVE ( 'NONE', #76, #125, #217, .T. ) ;
#303 = DIRECTION ( 'NONE',  ( 1.000000000000000000, 0.000000000000000000, 0.000000000000000000 ) ) ;
#304 = CALENDAR_DATE ( 2022, 7, 7 ) ;
#305 = CIRCLE ( 'NONE', #142, 4.000000000000000000 ) ;
#306 = CYLINDRICAL_SURFACE ( 'NONE', #263, 4.000000000000000000 ) ;
#307 = DIRECTION ( 'NONE',  ( -1.000000000000000000, 0.000000000000000000, 0.000000000000000000 ) ) ;
ENDSEC;
END-ISO-10303-21;
