ISO-10303-21;
HEADER;
FILE_DESCRIPTION (( 'STEP AP203' ),
    '1' );
FILE_NAME ('2abb.STEP',
    '2022-07-07T10:29:53',
    ( '' ),
    ( '' ),
    'SwSTEP 2.0',
    'SolidWorks 2019',
    '' );
FILE_SCHEMA (( 'CONFIG_CONTROL_DESIGN' ));
ENDSEC;

DATA;
#1 = CALENDAR_DATE ( 2022, 7, 7 ) ;
#2 = PERSON_AND_ORGANIZATION ( #58, #66 ) ;
#3 = CYLINDRICAL_SURFACE ( 'NONE', #177, 3.000000000000000444 ) ;
#4 = CARTESIAN_POINT ( 'NONE',  ( -1.600000000000000089, 0.000000000000000000, 163.0000000000000000 ) ) ;
#5 = CARTESIAN_POINT ( 'NONE',  ( 0.000000000000000000, 0.000000000000000000, 0.000000000000000000 ) ) ;
#6 = DIRECTION ( 'NONE',  ( -0.000000000000000000, -0.000000000000000000, -1.000000000000000000 ) ) ;
#7 = DIRECTION ( 'NONE',  ( 1.000000000000000000, 0.000000000000000000, -0.000000000000000000 ) ) ;
#8 = PRODUCT_DEFINITION_FORMATION_WITH_SPECIFIED_SOURCE ( 'LIBOVOLNÝ', '', #255, .NOT_KNOWN. ) ;
#9 = ORIENTED_EDGE ( 'NONE', *, *, #184, .F. ) ;
#10 = EDGE_LOOP ( 'NONE', ( #81, #55, #300, #9 ) ) ;
#11 = VERTEX_POINT ( 'NONE', #247 ) ;
#12 = ORIENTED_EDGE ( 'NONE', *, *, #13, .F. ) ;
#13 = EDGE_CURVE ( 'NONE', #11, #57, #112, .T. ) ;
#14 = VERTEX_POINT ( 'NONE', #130 ) ;
#15 = CARTESIAN_POINT ( 'NONE',  ( -1.800000000000000266, 2.204364238465236069E-16, 3.000000000000004441 ) ) ;
#16 = VECTOR ( 'NONE', #223, 1000.000000000000000 ) ;
#17 = EDGE_CURVE ( 'NONE', #128, #205, #228, .T. ) ;
#18 = APPROVAL_DATE_TIME ( #281, #301 ) ;
#19 = PERSON_AND_ORGANIZATION_ROLE ( 'design_owner' ) ;
#20 = MECHANICAL_CONTEXT ( 'NONE', #153, 'mechanical' ) ;
#21 = PERSON_AND_ORGANIZATION_ROLE ( 'creator' ) ;
#22 =( LENGTH_UNIT ( ) NAMED_UNIT ( * ) SI_UNIT ( .MILLI., .METRE. ) );
#23 = CC_DESIGN_PERSON_AND_ORGANIZATION_ASSIGNMENT ( #237, #120, ( #290 ) ) ;
#24 = DATE_TIME_ROLE ( 'classification_date' ) ;
#25 = CIRCLE ( 'NONE', #249, 3.000000000000000444 ) ;
#26 = CARTESIAN_POINT ( 'NONE',  ( 0.000000000000000000, 0.000000000000000000, 3.200000000000008171 ) ) ;
#27 = LINE ( 'NONE', #125, #16 ) ;
#28 = DIRECTION ( 'NONE',  ( 0.000000000000000000, 0.000000000000000000, 1.000000000000000000 ) ) ;
#29 = CARTESIAN_POINT ( 'NONE',  ( 3.000000000000000444, 3.673940397442060361E-16, 0.000000000000000000 ) ) ;
#30 = ORIENTED_EDGE ( 'NONE', *, *, #303, .F. ) ;
#31 = FACE_OUTER_BOUND ( 'NONE', #183, .T. ) ;
#32 = ORIENTED_EDGE ( 'NONE', *, *, #230, .F. ) ;
#33 = EDGE_LOOP ( 'NONE', ( #293, #274 ) ) ;
#34 = VERTEX_POINT ( 'NONE', #163 ) ;
#35 = EDGE_LOOP ( 'NONE', ( #157, #198, #269, #252 ) ) ;
#36 = CIRCLE ( 'NONE', #197, 1.600000000000000089 ) ;
#37 = MANIFOLD_SOLID_BREP ( 'Zaoblit1', #48 ) ;
#38 = ADVANCED_FACE ( 'NONE', ( #302 ), #254, .T. ) ;
#39 = DIRECTION ( 'NONE',  ( 0.000000000000000000, 0.000000000000000000, 1.000000000000000000 ) ) ;
#40 = CC_DESIGN_DATE_AND_TIME_ASSIGNMENT ( #94, #192, ( #263 ) ) ;
#41 = FACE_OUTER_BOUND ( 'NONE', #35, .T. ) ;
#42 = TOROIDAL_SURFACE ( 'NONE', #285, 1.800000000000000266, 0.2000000000000000111 ) ;
#43 = APPROVAL_ROLE ( '' ) ;
#44 = ADVANCED_FACE ( 'NONE', ( #115, #60 ), #87, .T. ) ;
#45 = APPLICATION_PROTOCOL_DEFINITION ( 'international standard', 'config_control_design', 1994, #141 ) ;
#46 = CARTESIAN_POINT ( 'NONE',  ( 0.000000000000000000, 0.000000000000000000, 3.000000000000000000 ) ) ;
#47 = LOCAL_TIME ( 12, 29, 53.00000000000000000, #283 ) ;
#48 = CLOSED_SHELL ( 'NONE', ( #239, #216, #240, #220, #44, #69, #250, #38, #271 ) ) ;
#49 = DIRECTION ( 'NONE',  ( -1.000000000000000000, 0.000000000000000000, 0.000000000000000000 ) ) ;
#50 = CARTESIAN_POINT ( 'NONE',  ( 1.600000000000000089, 1.959434878635765230E-16, 163.0000000000000000 ) ) ;
#51 = DIRECTION ( 'NONE',  ( 1.224646799147353207E-16, 1.000000000000000000, -0.000000000000000000 ) ) ;
#52 = EDGE_LOOP ( 'NONE', ( #272, #296 ) ) ;
#53 = DIRECTION ( 'NONE',  ( 1.000000000000000000, 0.000000000000000000, 0.000000000000000000 ) ) ;
#54 = ORIENTED_EDGE ( 'NONE', *, *, #132, .F. ) ;
#55 = ORIENTED_EDGE ( 'NONE', *, *, #65, .T. ) ;
#56 = AXIS2_PLACEMENT_3D ( 'NONE', #64, #236, #171 ) ;
#57 = VERTEX_POINT ( 'NONE', #15 ) ;
#58 = PERSON ( 'NEURÈENÝ', 'NEURÈENÝ', 'NEURÈENÝ', ('NEURÈENÝ'), ('NEURÈENÝ'), ('NEURÈENÝ') ) ;
#59 = EDGE_CURVE ( 'NONE', #34, #79, #92, .T. ) ;
#60 = FACE_OUTER_BOUND ( 'NONE', #52, .T. ) ;
#61 = CIRCLE ( 'NONE', #137, 0.1999999999999998723 ) ;
#62 = APPROVAL ( #147, 'NEURÈENÝ' ) ;
#63 = CIRCLE ( 'NONE', #56, 3.000000000000000444 ) ;
#64 = CARTESIAN_POINT ( 'NONE',  ( 0.000000000000000000, 0.000000000000000000, 3.000000000000000000 ) ) ;
#65 = EDGE_CURVE ( 'NONE', #134, #79, #294, .T. ) ;
#66 = ORGANIZATION ( 'NEURÈENÝ', 'NEURÈENÝ', '' ) ;
#67 = CIRCLE ( 'NONE', #106, 1.600000000000000089 ) ;
#68 = DATE_AND_TIME ( #215, #90 ) ;
#69 = ADVANCED_FACE ( 'NONE', ( #31 ), #180, .F. ) ;
#70 = CARTESIAN_POINT ( 'NONE',  ( -3.000000000000000444, 0.000000000000000000, 3.000000000000000000 ) ) ;
#71 = CARTESIAN_POINT ( 'NONE',  ( 0.000000000000000000, 0.000000000000000000, 3.000000000000000000 ) ) ;
#72 = CARTESIAN_POINT ( 'NONE',  ( 0.000000000000000000, 0.000000000000000000, 3.000000000000000000 ) ) ;
#73 = ADVANCED_BREP_SHAPE_REPRESENTATION ( '2abb', ( #37, #162 ), #74 ) ;
#74 =( GEOMETRIC_REPRESENTATION_CONTEXT ( 3 ) GLOBAL_UNCERTAINTY_ASSIGNED_CONTEXT ( ( #138 ) ) GLOBAL_UNIT_ASSIGNED_CONTEXT ( ( #22, #238, #284 ) ) REPRESENTATION_CONTEXT ( 'NONE', 'WORKASPACE' ) );
#75 = AXIS2_PLACEMENT_3D ( 'NONE', #5, #151, #262 ) ;
#76 = CARTESIAN_POINT ( 'NONE',  ( 3.000000000000000444, 3.673940397442060361E-16, 3.000000000000000000 ) ) ;
#77 = ORIENTED_EDGE ( 'NONE', *, *, #242, .F. ) ;
#78 = DIRECTION ( 'NONE',  ( -0.000000000000000000, -0.000000000000000000, -1.000000000000000000 ) ) ;
#79 = VERTEX_POINT ( 'NONE', #105 ) ;
#80 = ORIENTED_EDGE ( 'NONE', *, *, #230, .T. ) ;
#81 = ORIENTED_EDGE ( 'NONE', *, *, #278, .F. ) ;
#82 = CIRCLE ( 'NONE', #75, 3.000000000000000444 ) ;
#83 = ORIENTED_EDGE ( 'NONE', *, *, #13, .T. ) ;
#84 = CC_DESIGN_APPROVAL ( #301, ( #8 ) ) ;
#85 = CIRCLE ( 'NONE', #221, 0.2000000000000000944 ) ;
#86 = APPROVAL ( #195, 'NEURÈENÝ' ) ;
#87 = PLANE ( 'NONE',  #159 ) ;
#88 = PERSON_AND_ORGANIZATION ( #58, #66 ) ;
#89 = APPROVAL_STATUS ( 'not_yet_approved' ) ;
#90 = LOCAL_TIME ( 12, 29, 53.00000000000000000, #286 ) ;
#91 = COORDINATED_UNIVERSAL_TIME_OFFSET ( 1, 0, .AHEAD. ) ;
#92 = CIRCLE ( 'NONE', #114, 1.600000000000000089 ) ;
#93 = DATE_AND_TIME ( #168, #47 ) ;
#94 = DATE_AND_TIME ( #1, #188 ) ;
#95 = CARTESIAN_POINT ( 'NONE',  ( 0.000000000000000000, 0.000000000000000000, 163.0000000000000000 ) ) ;
#96 = EDGE_CURVE ( 'NONE', #79, #11, #85, .T. ) ;
#97 = CALENDAR_DATE ( 2022, 7, 7 ) ;
#98 = CARTESIAN_POINT ( 'NONE',  ( 0.000000000000000000, 0.000000000000000000, 0.000000000000000000 ) ) ;
#99 = FACE_OUTER_BOUND ( 'NONE', #210, .T. ) ;
#100 = CARTESIAN_POINT ( 'NONE',  ( 0.000000000000000000, 0.000000000000000000, 0.000000000000000000 ) ) ;
#101 = CC_DESIGN_PERSON_AND_ORGANIZATION_ASSIGNMENT ( #261, #166, ( #263 ) ) ;
#102 = FACE_OUTER_BOUND ( 'NONE', #227, .T. ) ;
#103 = DIRECTION ( 'NONE',  ( -1.000000000000000000, 0.000000000000000000, 0.000000000000000000 ) ) ;
#104 = CC_DESIGN_SECURITY_CLASSIFICATION ( #290, ( #8 ) ) ;
#105 = CARTESIAN_POINT ( 'NONE',  ( 1.600000000000000089, 1.959434878635765230E-16, 3.200000000000008171 ) ) ;
#106 = AXIS2_PLACEMENT_3D ( 'NONE', #241, #244, #149 ) ;
#107 = ORIENTED_EDGE ( 'NONE', *, *, #65, .F. ) ;
#108 = CARTESIAN_POINT ( 'NONE',  ( 3.000000000000000444, 3.673940397442060361E-16, 3.000000000000000000 ) ) ;
#109 = EDGE_CURVE ( 'NONE', #79, #34, #67, .T. ) ;
#110 = ORIENTED_EDGE ( 'NONE', *, *, #161, .T. ) ;
#111 = ORIENTED_EDGE ( 'NONE', *, *, #257, .T. ) ;
#112 = CIRCLE ( 'NONE', #299, 1.800000000000000266 ) ;
#113 = ORIENTED_EDGE ( 'NONE', *, *, #242, .T. ) ;
#114 = AXIS2_PLACEMENT_3D ( 'NONE', #246, #129, #53 ) ;
#115 = FACE_BOUND ( 'NONE', #136, .T. ) ;
#116 = AXIS2_PLACEMENT_3D ( 'NONE', #46, #117, #173 ) ;
#117 = DIRECTION ( 'NONE',  ( -0.000000000000000000, -0.000000000000000000, -1.000000000000000000 ) ) ;
#118 = PERSON_AND_ORGANIZATION ( #58, #66 ) ;
#119 = DIRECTION ( 'NONE',  ( 1.000000000000000000, 0.000000000000000000, 0.000000000000000000 ) ) ;
#120 = PERSON_AND_ORGANIZATION_ROLE ( 'classification_officer' ) ;
#121 = AXIS2_PLACEMENT_3D ( 'NONE', #26, #28, #224 ) ;
#122 = AXIS2_PLACEMENT_3D ( 'NONE', #71, #175, #49 ) ;
#123 = CC_DESIGN_PERSON_AND_ORGANIZATION_ASSIGNMENT ( #2, #19, ( #255 ) ) ;
#124 = CARTESIAN_POINT ( 'NONE',  ( 0.000000000000000000, 0.000000000000000000, 3.000000000000000000 ) ) ;
#125 = CARTESIAN_POINT ( 'NONE',  ( -1.600000000000000089, 0.000000000000000000, 163.0000000000000000 ) ) ;
#126 = CYLINDRICAL_SURFACE ( 'NONE', #122, 3.000000000000000444 ) ;
#127 = CYLINDRICAL_SURFACE ( 'NONE', #259, 1.600000000000000089 ) ;
#128 = VERTEX_POINT ( 'NONE', #76 ) ;
#129 = DIRECTION ( 'NONE',  ( 0.000000000000000000, 0.000000000000000000, 1.000000000000000000 ) ) ;
#130 = CARTESIAN_POINT ( 'NONE',  ( -3.000000000000000444, 0.000000000000000000, 3.000000000000000000 ) ) ;
#131 = TOROIDAL_SURFACE ( 'NONE', #121, 1.800000000000000266, 0.2000000000000000111 ) ;
#132 = EDGE_CURVE ( 'NONE', #14, #128, #25, .T. ) ;
#133 = EDGE_LOOP ( 'NONE', ( #181, #54, #80, #113 ) ) ;
#134 = VERTEX_POINT ( 'NONE', #50 ) ;
#135 = APPROVAL_PERSON_ORGANIZATION ( #118, #301, #43 ) ;
#136 = EDGE_LOOP ( 'NONE', ( #83, #111 ) ) ;
#137 = AXIS2_PLACEMENT_3D ( 'NONE', #200, #51, #176 ) ;
#138 = UNCERTAINTY_MEASURE_WITH_UNIT (LENGTH_MEASURE( 1.000000000000000082E-05 ), #22, 'distance_accuracy_value', 'NONE');
#139 = CARTESIAN_POINT ( 'NONE',  ( 0.000000000000000000, 0.000000000000000000, 3.000000000000000000 ) ) ;
#140 = CALENDAR_DATE ( 2022, 7, 7 ) ;
#141 = APPLICATION_CONTEXT ( 'configuration controlled 3d designs of mechanical parts and assemblies' ) ;
#142 = PERSON_AND_ORGANIZATION ( #58, #66 ) ;
#143 = CC_DESIGN_APPROVAL ( #62, ( #263 ) ) ;
#144 = CARTESIAN_POINT ( 'NONE',  ( 0.000000000000000000, 0.000000000000000000, 163.0000000000000000 ) ) ;
#145 = AXIS2_PLACEMENT_3D ( 'NONE', #243, #291, #288 ) ;
#146 = CC_DESIGN_DATE_AND_TIME_ASSIGNMENT ( #307, #24, ( #290 ) ) ;
#147 = APPROVAL_STATUS ( 'not_yet_approved' ) ;
#148 = DIRECTION ( 'NONE',  ( -0.000000000000000000, -0.000000000000000000, -1.000000000000000000 ) ) ;
#149 = DIRECTION ( 'NONE',  ( 1.000000000000000000, 0.000000000000000000, 0.000000000000000000 ) ) ;
#150 = CIRCLE ( 'NONE', #275, 3.000000000000000444 ) ;
#151 = DIRECTION ( 'NONE',  ( 0.000000000000000000, 0.000000000000000000, 1.000000000000000000 ) ) ;
#152 = FACE_OUTER_BOUND ( 'NONE', #10, .T. ) ;
#153 = APPLICATION_CONTEXT ( 'configuration controlled 3d designs of mechanical parts and assemblies' ) ;
#154 = DIRECTION ( 'NONE',  ( 0.000000000000000000, 0.000000000000000000, -1.000000000000000000 ) ) ;
#155 = ORIENTED_EDGE ( 'NONE', *, *, #211, .T. ) ;
#156 = CARTESIAN_POINT ( 'NONE',  ( 1.800000000000000266, 0.000000000000000000, 3.200000000000008171 ) ) ;
#157 = ORIENTED_EDGE ( 'NONE', *, *, #161, .F. ) ;
#158 = CARTESIAN_POINT ( 'NONE',  ( 0.000000000000000000, 0.000000000000000000, 3.000000000000000000 ) ) ;
#159 = AXIS2_PLACEMENT_3D ( 'NONE', #139, #233, #186 ) ;
#160 = ORIENTED_EDGE ( 'NONE', *, *, #17, .T. ) ;
#161 = EDGE_CURVE ( 'NONE', #34, #57, #61, .T. ) ;
#162 = AXIS2_PLACEMENT_3D ( 'NONE', #98, #235, #258 ) ;
#163 = CARTESIAN_POINT ( 'NONE',  ( -1.600000000000000089, 0.000000000000000000, 3.200000000000008171 ) ) ;
#164 = VECTOR ( 'NONE', #148, 1000.000000000000000 ) ;
#165 = PERSON_AND_ORGANIZATION_ROLE ( 'design_supplier' ) ;
#166 = PERSON_AND_ORGANIZATION_ROLE ( 'creator' ) ;
#167 = AXIS2_PLACEMENT_3D ( 'NONE', #270, #226, #7 ) ;
#168 = CALENDAR_DATE ( 2022, 7, 7 ) ;
#169 = APPLICATION_PROTOCOL_DEFINITION ( 'international standard', 'config_control_design', 1994, #153 ) ;
#170 = SHAPE_DEFINITION_REPRESENTATION ( #187, #73 ) ;
#171 = DIRECTION ( 'NONE',  ( 1.000000000000000000, 0.000000000000000000, 0.000000000000000000 ) ) ;
#172 = COORDINATED_UNIVERSAL_TIME_OFFSET ( 1, 0, .AHEAD. ) ;
#173 = DIRECTION ( 'NONE',  ( 1.000000000000000000, 0.000000000000000000, 0.000000000000000000 ) ) ;
#174 = LINE ( 'NONE', #70, #164 ) ;
#175 = DIRECTION ( 'NONE',  ( -0.000000000000000000, -0.000000000000000000, -1.000000000000000000 ) ) ;
#176 = DIRECTION ( 'NONE',  ( -1.000000000000000000, 1.224646799147354686E-16, 0.000000000000000000 ) ) ;
#177 = AXIS2_PLACEMENT_3D ( 'NONE', #124, #199, #201 ) ;
#178 = DIRECTION ( 'NONE',  ( 0.000000000000000000, 0.000000000000000000, 1.000000000000000000 ) ) ;
#179 = ORIENTED_EDGE ( 'NONE', *, *, #96, .F. ) ;
#180 = PLANE ( 'NONE',  #167 ) ;
#181 = ORIENTED_EDGE ( 'NONE', *, *, #17, .F. ) ;
#182 = DIRECTION ( 'NONE',  ( -0.000000000000000000, -0.000000000000000000, -1.000000000000000000 ) ) ;
#183 = EDGE_LOOP ( 'NONE', ( #77, #298 ) ) ;
#184 = EDGE_CURVE ( 'NONE', #207, #34, #27, .T. ) ;
#185 = ORIENTED_EDGE ( 'NONE', *, *, #295, .F. ) ;
#186 = DIRECTION ( 'NONE',  ( 1.000000000000000000, 0.000000000000000000, -0.000000000000000000 ) ) ;
#187 = PRODUCT_DEFINITION_SHAPE ( 'NONE', 'NONE',  #263 ) ;
#188 = LOCAL_TIME ( 12, 29, 53.00000000000000000, #91 ) ;
#189 = APPROVAL_ROLE ( '' ) ;
#190 = DIRECTION ( 'NONE',  ( 1.000000000000000000, 0.000000000000000000, 0.000000000000000000 ) ) ;
#191 = PERSON_AND_ORGANIZATION ( #58, #66 ) ;
#192 = DATE_TIME_ROLE ( 'creation_date' ) ;
#193 = CC_DESIGN_PERSON_AND_ORGANIZATION_ASSIGNMENT ( #88, #21, ( #8 ) ) ;
#194 = PERSON_AND_ORGANIZATION ( #58, #66 ) ;
#195 = APPROVAL_STATUS ( 'not_yet_approved' ) ;
#196 = APPROVAL_ROLE ( '' ) ;
#197 = AXIS2_PLACEMENT_3D ( 'NONE', #144, #282, #190 ) ;
#198 = ORIENTED_EDGE ( 'NONE', *, *, #109, .F. ) ;
#199 = DIRECTION ( 'NONE',  ( -0.000000000000000000, -0.000000000000000000, -1.000000000000000000 ) ) ;
#200 = CARTESIAN_POINT ( 'NONE',  ( -1.800000000000000266, 2.204364238465236069E-16, 3.200000000000008171 ) ) ;
#201 = DIRECTION ( 'NONE',  ( -1.000000000000000000, 0.000000000000000000, 0.000000000000000000 ) ) ;
#202 = FACE_OUTER_BOUND ( 'NONE', #133, .T. ) ;
#203 = CARTESIAN_POINT ( 'NONE',  ( 1.600000000000000089, 1.959434878635765230E-16, 163.0000000000000000 ) ) ;
#204 = CC_DESIGN_PERSON_AND_ORGANIZATION_ASSIGNMENT ( #191, #165, ( #8 ) ) ;
#205 = VERTEX_POINT ( 'NONE', #29 ) ;
#206 = DIRECTION ( 'NONE',  ( -0.000000000000000000, -0.000000000000000000, -1.000000000000000000 ) ) ;
#207 = VERTEX_POINT ( 'NONE', #4 ) ;
#208 = VECTOR ( 'NONE', #206, 1000.000000000000000 ) ;
#209 = CIRCLE ( 'NONE', #116, 1.800000000000000266 ) ;
#210 = EDGE_LOOP ( 'NONE', ( #185, #160, #155, #32 ) ) ;
#211 = EDGE_CURVE ( 'NONE', #205, #251, #150, .T. ) ;
#212 = APPROVAL_PERSON_ORGANIZATION ( #194, #86, #189 ) ;
#213 = DIRECTION ( 'NONE',  ( 1.000000000000000000, 0.000000000000000000, -0.000000000000000000 ) ) ;
#214 = DESIGN_CONTEXT ( 'detailed design', #141, 'design' ) ;
#215 = CALENDAR_DATE ( 2022, 7, 7 ) ;
#216 = ADVANCED_FACE ( 'NONE', ( #152 ), #127, .T. ) ;
#217 = LOCAL_TIME ( 12, 29, 53.00000000000000000, #172 ) ;
#218 = SECURITY_CLASSIFICATION_LEVEL ( 'unclassified' ) ;
#219 = DIRECTION ( 'NONE',  ( 0.000000000000000000, 0.000000000000000000, 1.000000000000000000 ) ) ;
#220 = ADVANCED_FACE ( 'NONE', ( #202 ), #126, .T. ) ;
#221 = AXIS2_PLACEMENT_3D ( 'NONE', #156, #266, #154 ) ;
#222 = CYLINDRICAL_SURFACE ( 'NONE', #145, 1.600000000000000089 ) ;
#223 = DIRECTION ( 'NONE',  ( -0.000000000000000000, -0.000000000000000000, -1.000000000000000000 ) ) ;
#224 = DIRECTION ( 'NONE',  ( 1.000000000000000000, 0.000000000000000000, 0.000000000000000000 ) ) ;
#225 = CARTESIAN_POINT ( 'NONE',  ( 0.000000000000000000, 0.000000000000000000, 163.0000000000000000 ) ) ;
#226 = DIRECTION ( 'NONE',  ( 0.000000000000000000, 0.000000000000000000, 1.000000000000000000 ) ) ;
#227 = EDGE_LOOP ( 'NONE', ( #107, #30, #232, #297 ) ) ;
#228 = LINE ( 'NONE', #108, #208 ) ;
#229 = ORIENTED_EDGE ( 'NONE', *, *, #59, .F. ) ;
#230 = EDGE_CURVE ( 'NONE', #14, #251, #174, .T. ) ;
#231 = VECTOR ( 'NONE', #78, 1000.000000000000000 ) ;
#232 = ORIENTED_EDGE ( 'NONE', *, *, #184, .T. ) ;
#233 = DIRECTION ( 'NONE',  ( 0.000000000000000000, 0.000000000000000000, 1.000000000000000000 ) ) ;
#234 = CIRCLE ( 'NONE', #279, 1.600000000000000089 ) ;
#235 = DIRECTION ( 'NONE',  ( 0.000000000000000000, 0.000000000000000000, 1.000000000000000000 ) ) ;
#236 = DIRECTION ( 'NONE',  ( 0.000000000000000000, 0.000000000000000000, 1.000000000000000000 ) ) ;
#237 = PERSON_AND_ORGANIZATION ( #58, #66 ) ;
#238 =( NAMED_UNIT ( * ) PLANE_ANGLE_UNIT ( ) SI_UNIT ( $, .RADIAN. ) );
#239 = ADVANCED_FACE ( 'NONE', ( #265 ), #131, .F. ) ;
#240 = ADVANCED_FACE ( 'NONE', ( #99 ), #3, .T. ) ;
#241 = CARTESIAN_POINT ( 'NONE',  ( 0.000000000000000000, 0.000000000000000000, 3.200000000000008171 ) ) ;
#242 = EDGE_CURVE ( 'NONE', #251, #205, #82, .T. ) ;
#243 = CARTESIAN_POINT ( 'NONE',  ( 0.000000000000000000, 0.000000000000000000, 163.0000000000000000 ) ) ;
#244 = DIRECTION ( 'NONE',  ( 0.000000000000000000, 0.000000000000000000, 1.000000000000000000 ) ) ;
#245 = EDGE_LOOP ( 'NONE', ( #229, #110, #12, #179 ) ) ;
#246 = CARTESIAN_POINT ( 'NONE',  ( 0.000000000000000000, 0.000000000000000000, 3.200000000000008171 ) ) ;
#247 = CARTESIAN_POINT ( 'NONE',  ( 1.800000000000000266, 0.000000000000000000, 3.000000000000004441 ) ) ;
#248 = LOCAL_TIME ( 12, 29, 53.00000000000000000, #305 ) ;
#249 = AXIS2_PLACEMENT_3D ( 'NONE', #72, #178, #268 ) ;
#250 = ADVANCED_FACE ( 'NONE', ( #102 ), #222, .T. ) ;
#251 = VERTEX_POINT ( 'NONE', #287 ) ;
#252 = ORIENTED_EDGE ( 'NONE', *, *, #257, .F. ) ;
#253 = CC_DESIGN_APPROVAL ( #86, ( #290 ) ) ;
#254 = PLANE ( 'NONE',  #267 ) ;
#255 = PRODUCT ( '2abb', '2abb', '', ( #20 ) ) ;
#256 = DIRECTION ( 'NONE',  ( 1.000000000000000000, 0.000000000000000000, 0.000000000000000000 ) ) ;
#257 = EDGE_CURVE ( 'NONE', #57, #11, #209, .T. ) ;
#258 = DIRECTION ( 'NONE',  ( 1.000000000000000000, 0.000000000000000000, 0.000000000000000000 ) ) ;
#259 = AXIS2_PLACEMENT_3D ( 'NONE', #225, #6, #103 ) ;
#260 = CARTESIAN_POINT ( 'NONE',  ( 0.000000000000000000, 0.000000000000000000, 3.200000000000008171 ) ) ;
#261 = PERSON_AND_ORGANIZATION ( #58, #66 ) ;
#262 = DIRECTION ( 'NONE',  ( 1.000000000000000000, 0.000000000000000000, 0.000000000000000000 ) ) ;
#263 = PRODUCT_DEFINITION ( 'NEZNÁMÝ', '', #8, #214 ) ;
#264 = APPROVAL_PERSON_ORGANIZATION ( #142, #62, #196 ) ;
#265 = FACE_OUTER_BOUND ( 'NONE', #245, .T. ) ;
#266 = DIRECTION ( 'NONE',  ( 0.000000000000000000, -1.000000000000000000, 0.000000000000000000 ) ) ;
#267 = AXIS2_PLACEMENT_3D ( 'NONE', #277, #39, #213 ) ;
#268 = DIRECTION ( 'NONE',  ( 1.000000000000000000, 0.000000000000000000, 0.000000000000000000 ) ) ;
#269 = ORIENTED_EDGE ( 'NONE', *, *, #96, .T. ) ;
#270 = CARTESIAN_POINT ( 'NONE',  ( 0.000000000000000000, 0.000000000000000000, 0.000000000000000000 ) ) ;
#271 = ADVANCED_FACE ( 'NONE', ( #41 ), #42, .F. ) ;
#272 = ORIENTED_EDGE ( 'NONE', *, *, #132, .T. ) ;
#273 = DIRECTION ( 'NONE',  ( 1.000000000000000000, 0.000000000000000000, 0.000000000000000000 ) ) ;
#274 = ORIENTED_EDGE ( 'NONE', *, *, #278, .T. ) ;
#275 = AXIS2_PLACEMENT_3D ( 'NONE', #100, #289, #292 ) ;
#276 = PRODUCT_RELATED_PRODUCT_CATEGORY ( 'detail', '', ( #255 ) ) ;
#277 = CARTESIAN_POINT ( 'NONE',  ( 0.000000000000000000, 0.000000000000000000, 163.0000000000000000 ) ) ;
#278 = EDGE_CURVE ( 'NONE', #134, #207, #36, .T. ) ;
#279 = AXIS2_PLACEMENT_3D ( 'NONE', #95, #219, #256 ) ;
#280 = DIRECTION ( 'NONE',  ( 0.000000000000000000, 0.000000000000000000, 1.000000000000000000 ) ) ;
#281 = DATE_AND_TIME ( #97, #248 ) ;
#282 = DIRECTION ( 'NONE',  ( 0.000000000000000000, 0.000000000000000000, 1.000000000000000000 ) ) ;
#283 = COORDINATED_UNIVERSAL_TIME_OFFSET ( 1, 0, .AHEAD. ) ;
#284 =( NAMED_UNIT ( * ) SI_UNIT ( $, .STERADIAN. ) SOLID_ANGLE_UNIT ( ) );
#285 = AXIS2_PLACEMENT_3D ( 'NONE', #260, #280, #119 ) ;
#286 = COORDINATED_UNIVERSAL_TIME_OFFSET ( 1, 0, .AHEAD. ) ;
#287 = CARTESIAN_POINT ( 'NONE',  ( -3.000000000000000444, 0.000000000000000000, 0.000000000000000000 ) ) ;
#288 = DIRECTION ( 'NONE',  ( -1.000000000000000000, 0.000000000000000000, 0.000000000000000000 ) ) ;
#289 = DIRECTION ( 'NONE',  ( 0.000000000000000000, 0.000000000000000000, 1.000000000000000000 ) ) ;
#290 = SECURITY_CLASSIFICATION ( '', '', #218 ) ;
#291 = DIRECTION ( 'NONE',  ( -0.000000000000000000, -0.000000000000000000, -1.000000000000000000 ) ) ;
#292 = DIRECTION ( 'NONE',  ( 1.000000000000000000, 0.000000000000000000, 0.000000000000000000 ) ) ;
#293 = ORIENTED_EDGE ( 'NONE', *, *, #303, .T. ) ;
#294 = LINE ( 'NONE', #203, #231 ) ;
#295 = EDGE_CURVE ( 'NONE', #128, #14, #63, .T. ) ;
#296 = ORIENTED_EDGE ( 'NONE', *, *, #295, .T. ) ;
#297 = ORIENTED_EDGE ( 'NONE', *, *, #59, .T. ) ;
#298 = ORIENTED_EDGE ( 'NONE', *, *, #211, .F. ) ;
#299 = AXIS2_PLACEMENT_3D ( 'NONE', #158, #182, #273 ) ;
#300 = ORIENTED_EDGE ( 'NONE', *, *, #109, .T. ) ;
#301 = APPROVAL ( #89, 'NEURÈENÝ' ) ;
#302 = FACE_OUTER_BOUND ( 'NONE', #33, .T. ) ;
#303 = EDGE_CURVE ( 'NONE', #207, #134, #234, .T. ) ;
#304 = APPROVAL_DATE_TIME ( #93, #86 ) ;
#305 = COORDINATED_UNIVERSAL_TIME_OFFSET ( 1, 0, .AHEAD. ) ;
#306 = APPROVAL_DATE_TIME ( #68, #62 ) ;
#307 = DATE_AND_TIME ( #140, #217 ) ;
ENDSEC;
END-ISO-10303-21;
