ISO-10303-21;
HEADER;
FILE_DESCRIPTION (( 'STEP AP203' ),
    '1' );
FILE_NAME ('a83b.STEP',
    '2022-07-07T10:14:32',
    ( '' ),
    ( '' ),
    'SwSTEP 2.0',
    'SolidWorks 2019',
    '' );
FILE_SCHEMA (( 'CONFIG_CONTROL_DESIGN' ));
ENDSEC;

DATA;
#1 = AXIS2_PLACEMENT_3D ( 'NONE', #225, #33, #272 ) ;
#2 = EDGE_LOOP ( 'NONE', ( #229, #115 ) ) ;
#3 = DIRECTION ( 'NONE',  ( -0.000000000000000000, -0.000000000000000000, -1.000000000000000000 ) ) ;
#4 = ORIENTED_EDGE ( 'NONE', *, *, #135, .F. ) ;
#5 = PERSON_AND_ORGANIZATION ( #307, #31 ) ;
#6 = FACE_OUTER_BOUND ( 'NONE', #122, .T. ) ;
#7 = APPROVAL_ROLE ( '' ) ;
#8 = ORIENTED_EDGE ( 'NONE', *, *, #194, .T. ) ;
#9 = AXIS2_PLACEMENT_3D ( 'NONE', #149, #126, #147 ) ;
#10 = VERTEX_POINT ( 'NONE', #23 ) ;
#11 = CC_DESIGN_PERSON_AND_ORGANIZATION_ASSIGNMENT ( #164, #239, ( #32 ) ) ;
#12 = ORIENTED_EDGE ( 'NONE', *, *, #43, .F. ) ;
#13 = PERSON_AND_ORGANIZATION ( #307, #31 ) ;
#14 = DIRECTION ( 'NONE',  ( -0.000000000000000000, -0.000000000000000000, -1.000000000000000000 ) ) ;
#15 = LOCAL_TIME ( 12, 14, 32.00000000000000000, #70 ) ;
#16 = DIRECTION ( 'NONE',  ( 0.000000000000000000, -1.000000000000000000, 0.000000000000000000 ) ) ;
#17 = CARTESIAN_POINT ( 'NONE',  ( 2.750000000000000000, 3.367778697655221012E-16, 3.199999999999980638 ) ) ;
#18 = CARTESIAN_POINT ( 'NONE',  ( 2.750000000000000000, 3.367778697655221012E-16, 803.0000000000000000 ) ) ;
#19 = CIRCLE ( 'NONE', #299, 2.750000000000000000 ) ;
#20 = ADVANCED_FACE ( 'NONE', ( #118 ), #293, .T. ) ;
#21 = AXIS2_PLACEMENT_3D ( 'NONE', #69, #174, #161 ) ;
#22 = PRODUCT_RELATED_PRODUCT_CATEGORY ( 'detail', '', ( #32 ) ) ;
#23 = CARTESIAN_POINT ( 'NONE',  ( 5.000000000000000000, 6.123233995736766282E-16, 3.000000000000000000 ) ) ;
#24 = AXIS2_PLACEMENT_3D ( 'NONE', #30, #226, #62 ) ;
#25 = EDGE_LOOP ( 'NONE', ( #101, #198, #284, #145 ) ) ;
#26 = CARTESIAN_POINT ( 'NONE',  ( 0.000000000000000000, 0.000000000000000000, 3.199999999999980638 ) ) ;
#27 = ORIENTED_EDGE ( 'NONE', *, *, #292, .T. ) ;
#28 = PLANE ( 'NONE',  #24 ) ;
#29 = LINE ( 'NONE', #170, #133 ) ;
#30 = CARTESIAN_POINT ( 'NONE',  ( 0.000000000000000000, 0.000000000000000000, 3.000000000000000000 ) ) ;
#31 = ORGANIZATION ( 'NEURÈENÝ', 'NEURÈENÝ', '' ) ;
#32 = PRODUCT ( 'a83b', 'a83b', '', ( #71 ) ) ;
#33 = DIRECTION ( 'NONE',  ( 0.000000000000000000, 0.000000000000000000, 1.000000000000000000 ) ) ;
#34 = EDGE_CURVE ( 'NONE', #166, #192, #140, .T. ) ;
#35 = CARTESIAN_POINT ( 'NONE',  ( -5.000000000000000000, 0.000000000000000000, 0.000000000000000000 ) ) ;
#36 = CIRCLE ( 'NONE', #243, 0.2000000000000000944 ) ;
#37 = ADVANCED_FACE ( 'NONE', ( #222 ), #105, .F. ) ;
#38 = CARTESIAN_POINT ( 'NONE',  ( -2.949999999999999734, 3.612708057484692097E-16, 2.999999999999990674 ) ) ;
#39 = PLANE ( 'NONE',  #1 ) ;
#40 = ADVANCED_FACE ( 'NONE', ( #53 ), #256, .T. ) ;
#41 = VECTOR ( 'NONE', #201, 1000.000000000000000 ) ;
#42 = CIRCLE ( 'NONE', #221, 5.000000000000000000 ) ;
#43 = EDGE_CURVE ( 'NONE', #10, #166, #235, .T. ) ;
#44 = CC_DESIGN_PERSON_AND_ORGANIZATION_ASSIGNMENT ( #255, #188, ( #85 ) ) ;
#45 = DIRECTION ( 'NONE',  ( 0.000000000000000000, 0.000000000000000000, 1.000000000000000000 ) ) ;
#46 = ORIENTED_EDGE ( 'NONE', *, *, #306, .F. ) ;
#47 = CALENDAR_DATE ( 2022, 7, 7 ) ;
#48 = DIRECTION ( 'NONE',  ( -0.000000000000000000, -0.000000000000000000, -1.000000000000000000 ) ) ;
#49 = DIRECTION ( 'NONE',  ( 0.000000000000000000, 0.000000000000000000, 1.000000000000000000 ) ) ;
#50 = AXIS2_PLACEMENT_3D ( 'NONE', #64, #111, #278 ) ;
#51 = ORIENTED_EDGE ( 'NONE', *, *, #184, .F. ) ;
#52 = CALENDAR_DATE ( 2022, 7, 7 ) ;
#53 = FACE_OUTER_BOUND ( 'NONE', #96, .T. ) ;
#54 = ADVANCED_FACE ( 'NONE', ( #240 ), #141, .T. ) ;
#55 = PERSON_AND_ORGANIZATION_ROLE ( 'creator' ) ;
#56 = FACE_BOUND ( 'NONE', #2, .T. ) ;
#57 = EDGE_LOOP ( 'NONE', ( #104, #27, #187, #99 ) ) ;
#58 = COORDINATED_UNIVERSAL_TIME_OFFSET ( 1, 0, .AHEAD. ) ;
#59 = AXIS2_PLACEMENT_3D ( 'NONE', #179, #136, #176 ) ;
#60 = CARTESIAN_POINT ( 'NONE',  ( 0.000000000000000000, 0.000000000000000000, 3.000000000000000000 ) ) ;
#61 = CARTESIAN_POINT ( 'NONE',  ( 0.000000000000000000, 0.000000000000000000, 3.000000000000000000 ) ) ;
#62 = DIRECTION ( 'NONE',  ( 1.000000000000000000, 0.000000000000000000, -0.000000000000000000 ) ) ;
#63 = AXIS2_PLACEMENT_3D ( 'NONE', #79, #123, #287 ) ;
#64 = CARTESIAN_POINT ( 'NONE',  ( 0.000000000000000000, 0.000000000000000000, 803.0000000000000000 ) ) ;
#65 = ADVANCED_FACE ( 'NONE', ( #283 ), #165, .T. ) ;
#66 = CC_DESIGN_DATE_AND_TIME_ASSIGNMENT ( #290, #258, ( #85 ) ) ;
#67 = CIRCLE ( 'NONE', #50, 2.750000000000000000 ) ;
#68 = AXIS2_PLACEMENT_3D ( 'NONE', #60, #131, #153 ) ;
#69 = CARTESIAN_POINT ( 'NONE',  ( 0.000000000000000000, 0.000000000000000000, 0.000000000000000000 ) ) ;
#70 = COORDINATED_UNIVERSAL_TIME_OFFSET ( 1, 0, .AHEAD. ) ;
#71 = MECHANICAL_CONTEXT ( 'NONE', #210, 'mechanical' ) ;
#72 = CARTESIAN_POINT ( 'NONE',  ( 0.000000000000000000, 0.000000000000000000, 803.0000000000000000 ) ) ;
#73 = ORIENTED_EDGE ( 'NONE', *, *, #250, .T. ) ;
#74 =( LENGTH_UNIT ( ) NAMED_UNIT ( * ) SI_UNIT ( .MILLI., .METRE. ) );
#75 = CARTESIAN_POINT ( 'NONE',  ( 0.000000000000000000, 0.000000000000000000, 3.199999999999980638 ) ) ;
#76 = AXIS2_PLACEMENT_3D ( 'NONE', #220, #120, #295 ) ;
#77 = COORDINATED_UNIVERSAL_TIME_OFFSET ( 1, 0, .AHEAD. ) ;
#78 = APPROVAL_STATUS ( 'not_yet_approved' ) ;
#79 = CARTESIAN_POINT ( 'NONE',  ( 0.000000000000000000, 0.000000000000000000, 3.000000000000000000 ) ) ;
#80 = ORIENTED_EDGE ( 'NONE', *, *, #93, .T. ) ;
#81 = CARTESIAN_POINT ( 'NONE',  ( -2.750000000000000000, 0.000000000000000000, 803.0000000000000000 ) ) ;
#82 = ORIENTED_EDGE ( 'NONE', *, *, #194, .F. ) ;
#83 = CARTESIAN_POINT ( 'NONE',  ( -2.949999999999999734, 3.612708057484692097E-16, 3.199999999999980638 ) ) ;
#84 = APPROVAL ( #78, 'NEURÈENÝ' ) ;
#85 = SECURITY_CLASSIFICATION ( '', '', #169 ) ;
#86 = CARTESIAN_POINT ( 'NONE',  ( 2.750000000000000000, 3.367778697655221012E-16, 803.0000000000000000 ) ) ;
#87 = DIRECTION ( 'NONE',  ( 0.000000000000000000, 0.000000000000000000, 1.000000000000000000 ) ) ;
#88 = DIRECTION ( 'NONE',  ( -0.000000000000000000, -0.000000000000000000, -1.000000000000000000 ) ) ;
#89 = CARTESIAN_POINT ( 'NONE',  ( 2.949999999999999734, 0.000000000000000000, 2.999999999999990674 ) ) ;
#90 = VECTOR ( 'NONE', #88, 1000.000000000000000 ) ;
#91 = FACE_OUTER_BOUND ( 'NONE', #214, .T. ) ;
#92 = CIRCLE ( 'NONE', #185, 2.949999999999999734 ) ;
#93 = EDGE_CURVE ( 'NONE', #233, #231, #19, .T. ) ;
#94 = ADVANCED_FACE ( 'NONE', ( #56, #6 ), #28, .T. ) ;
#95 = CIRCLE ( 'NONE', #232, 2.949999999999999734 ) ;
#96 = EDGE_LOOP ( 'NONE', ( #168, #238, #128, #46 ) ) ;
#97 =( NAMED_UNIT ( * ) SI_UNIT ( $, .STERADIAN. ) SOLID_ANGLE_UNIT ( ) );
#98 = CARTESIAN_POINT ( 'NONE',  ( 0.000000000000000000, 0.000000000000000000, 803.0000000000000000 ) ) ;
#99 = ORIENTED_EDGE ( 'NONE', *, *, #279, .F. ) ;
#100 = COORDINATED_UNIVERSAL_TIME_OFFSET ( 1, 0, .AHEAD. ) ;
#101 = ORIENTED_EDGE ( 'NONE', *, *, #250, .F. ) ;
#102 = PERSON_AND_ORGANIZATION ( #307, #31 ) ;
#103 = CALENDAR_DATE ( 2022, 7, 7 ) ;
#104 = ORIENTED_EDGE ( 'NONE', *, *, #93, .F. ) ;
#105 = TOROIDAL_SURFACE ( 'NONE', #276, 2.949999999999999734, 0.2000000000000000111 ) ;
#106 = ORIENTED_EDGE ( 'NONE', *, *, #34, .F. ) ;
#107 = CC_DESIGN_PERSON_AND_ORGANIZATION_ASSIGNMENT ( #230, #219, ( #175 ) ) ;
#108 = APPROVAL_PERSON_ORGANIZATION ( #102, #241, #163 ) ;
#109 = DIRECTION ( 'NONE',  ( 0.000000000000000000, 0.000000000000000000, 1.000000000000000000 ) ) ;
#110 = CC_DESIGN_APPROVAL ( #241, ( #85 ) ) ;
#111 = DIRECTION ( 'NONE',  ( 0.000000000000000000, 0.000000000000000000, 1.000000000000000000 ) ) ;
#112 = DIRECTION ( 'NONE',  ( 1.000000000000000000, 0.000000000000000000, 0.000000000000000000 ) ) ;
#113 = CARTESIAN_POINT ( 'NONE',  ( 0.000000000000000000, 0.000000000000000000, 3.000000000000000000 ) ) ;
#114 = APPROVAL_PERSON_ORGANIZATION ( #13, #84, #146 ) ;
#115 = ORIENTED_EDGE ( 'NONE', *, *, #135, .T. ) ;
#116 = PERSON_AND_ORGANIZATION ( #307, #31 ) ;
#117 = AXIS2_PLACEMENT_3D ( 'NONE', #98, #266, #189 ) ;
#118 = FACE_OUTER_BOUND ( 'NONE', #25, .T. ) ;
#119 = ORIENTED_EDGE ( 'NONE', *, *, #292, .F. ) ;
#120 = DIRECTION ( 'NONE',  ( 0.000000000000000000, 0.000000000000000000, 1.000000000000000000 ) ) ;
#121 = DIRECTION ( 'NONE',  ( 0.000000000000000000, 0.000000000000000000, 1.000000000000000000 ) ) ;
#122 = EDGE_LOOP ( 'NONE', ( #218, #73 ) ) ;
#123 = DIRECTION ( 'NONE',  ( -0.000000000000000000, -0.000000000000000000, -1.000000000000000000 ) ) ;
#124 = VERTEX_POINT ( 'NONE', #18 ) ;
#125 = APPROVAL_STATUS ( 'not_yet_approved' ) ;
#126 = DIRECTION ( 'NONE',  ( -0.000000000000000000, -0.000000000000000000, -1.000000000000000000 ) ) ;
#127 = AXIS2_PLACEMENT_3D ( 'NONE', #275, #109, #253 ) ;
#128 = ORIENTED_EDGE ( 'NONE', *, *, #267, .T. ) ;
#129 = PRODUCT_DEFINITION ( 'NEZNÁMÝ', '', #175, #132 ) ;
#130 = UNCERTAINTY_MEASURE_WITH_UNIT (LENGTH_MEASURE( 1.000000000000000082E-05 ), #74, 'distance_accuracy_value', 'NONE');
#131 = DIRECTION ( 'NONE',  ( 0.000000000000000000, 0.000000000000000000, 1.000000000000000000 ) ) ;
#132 = DESIGN_CONTEXT ( 'detailed design', #244, 'design' ) ;
#133 = VECTOR ( 'NONE', #48, 1000.000000000000000 ) ;
#134 = DIRECTION ( 'NONE',  ( 1.000000000000000000, 0.000000000000000000, 0.000000000000000000 ) ) ;
#135 = EDGE_CURVE ( 'NONE', #144, #236, #92, .T. ) ;
#136 = DIRECTION ( 'NONE',  ( 0.000000000000000000, 0.000000000000000000, 1.000000000000000000 ) ) ;
#137 = DIRECTION ( 'NONE',  ( 0.000000000000000000, 0.000000000000000000, 1.000000000000000000 ) ) ;
#138 = LOCAL_TIME ( 12, 14, 32.00000000000000000, #100 ) ;
#139 = CC_DESIGN_DATE_AND_TIME_ASSIGNMENT ( #223, #263, ( #129 ) ) ;
#140 = CIRCLE ( 'NONE', #21, 5.000000000000000000 ) ;
#141 = CYLINDRICAL_SURFACE ( 'NONE', #117, 2.750000000000000000 ) ;
#142 = EDGE_LOOP ( 'NONE', ( #268, #106 ) ) ;
#143 = CLOSED_SHELL ( 'NONE', ( #274, #40, #20, #155, #94, #209, #54, #65, #37 ) ) ;
#144 = VERTEX_POINT ( 'NONE', #38 ) ;
#145 = ORIENTED_EDGE ( 'NONE', *, *, #180, .F. ) ;
#146 = APPROVAL_ROLE ( '' ) ;
#147 = DIRECTION ( 'NONE',  ( -1.000000000000000000, 0.000000000000000000, 0.000000000000000000 ) ) ;
#148 = DATE_AND_TIME ( #103, #156 ) ;
#149 = CARTESIAN_POINT ( 'NONE',  ( 0.000000000000000000, 0.000000000000000000, 803.0000000000000000 ) ) ;
#150 = ORIENTED_EDGE ( 'NONE', *, *, #205, .T. ) ;
#151 = PERSON_AND_ORGANIZATION ( #307, #31 ) ;
#152 = CIRCLE ( 'NONE', #68, 5.000000000000000000 ) ;
#153 = DIRECTION ( 'NONE',  ( 1.000000000000000000, 0.000000000000000000, 0.000000000000000000 ) ) ;
#154 = CARTESIAN_POINT ( 'NONE',  ( 0.000000000000000000, 0.000000000000000000, 3.199999999999980638 ) ) ;
#155 = ADVANCED_FACE ( 'NONE', ( #91 ), #202, .T. ) ;
#156 = LOCAL_TIME ( 12, 14, 32.00000000000000000, #58 ) ;
#157 = DIRECTION ( 'NONE',  ( -0.000000000000000000, -0.000000000000000000, -1.000000000000000000 ) ) ;
#158 = DIRECTION ( 'NONE',  ( 1.000000000000000000, 0.000000000000000000, 0.000000000000000000 ) ) ;
#159 = AXIS2_PLACEMENT_3D ( 'NONE', #113, #157, #301 ) ;
#160 = CIRCLE ( 'NONE', #270, 0.2000000000000000944 ) ;
#161 = DIRECTION ( 'NONE',  ( 1.000000000000000000, 0.000000000000000000, 0.000000000000000000 ) ) ;
#162 = ORIENTED_EDGE ( 'NONE', *, *, #306, .T. ) ;
#163 = APPROVAL_ROLE ( '' ) ;
#164 = PERSON_AND_ORGANIZATION ( #307, #31 ) ;
#165 = PLANE ( 'NONE',  #208 ) ;
#166 = VERTEX_POINT ( 'NONE', #207 ) ;
#167 = APPROVAL_DATE_TIME ( #286, #211 ) ;
#168 = ORIENTED_EDGE ( 'NONE', *, *, #205, .F. ) ;
#169 = SECURITY_CLASSIFICATION_LEVEL ( 'unclassified' ) ;
#170 = CARTESIAN_POINT ( 'NONE',  ( -2.750000000000000000, 0.000000000000000000, 803.0000000000000000 ) ) ;
#171 = CARTESIAN_POINT ( 'NONE',  ( 5.000000000000000000, 6.123233995736766282E-16, 3.000000000000000000 ) ) ;
#172 = ORIENTED_EDGE ( 'NONE', *, *, #180, .T. ) ;
#173 = APPROVAL_STATUS ( 'not_yet_approved' ) ;
#174 = DIRECTION ( 'NONE',  ( 0.000000000000000000, 0.000000000000000000, 1.000000000000000000 ) ) ;
#175 = PRODUCT_DEFINITION_FORMATION_WITH_SPECIFIED_SOURCE ( 'LIBOVOLNÝ', '', #32, .NOT_KNOWN. ) ;
#176 = DIRECTION ( 'NONE',  ( 1.000000000000000000, 0.000000000000000000, 0.000000000000000000 ) ) ;
#177 = CARTESIAN_POINT ( 'NONE',  ( 2.949999999999999734, 0.000000000000000000, 3.199999999999980638 ) ) ;
#178 = EDGE_CURVE ( 'NONE', #192, #166, #197, .T. ) ;
#179 = CARTESIAN_POINT ( 'NONE',  ( 0.000000000000000000, 0.000000000000000000, 803.0000000000000000 ) ) ;
#180 = EDGE_CURVE ( 'NONE', #296, #192, #251, .T. ) ;
#181 = DIRECTION ( 'NONE',  ( 1.000000000000000000, 0.000000000000000000, 0.000000000000000000 ) ) ;
#182 = CARTESIAN_POINT ( 'NONE',  ( 0.000000000000000000, 0.000000000000000000, 3.000000000000000000 ) ) ;
#183 = VECTOR ( 'NONE', #3, 1000.000000000000000 ) ;
#184 = EDGE_CURVE ( 'NONE', #296, #10, #42, .T. ) ;
#185 = AXIS2_PLACEMENT_3D ( 'NONE', #61, #14, #112 ) ;
#186 = CC_DESIGN_PERSON_AND_ORGANIZATION_ASSIGNMENT ( #151, #55, ( #129 ) ) ;
#187 = ORIENTED_EDGE ( 'NONE', *, *, #252, .F. ) ;
#188 = PERSON_AND_ORGANIZATION_ROLE ( 'classification_officer' ) ;
#189 = DIRECTION ( 'NONE',  ( -1.000000000000000000, 0.000000000000000000, 0.000000000000000000 ) ) ;
#190 = APPROVAL_DATE_TIME ( #195, #241 ) ;
#191 = CALENDAR_DATE ( 2022, 7, 7 ) ;
#192 = VERTEX_POINT ( 'NONE', #35 ) ;
#193 = ORIENTED_EDGE ( 'NONE', *, *, #279, .T. ) ;
#194 = EDGE_CURVE ( 'NONE', #294, #124, #67, .T. ) ;
#195 = DATE_AND_TIME ( #47, #280 ) ;
#196 = DIRECTION ( 'NONE',  ( 0.000000000000000000, 0.000000000000000000, -1.000000000000000000 ) ) ;
#197 = CIRCLE ( 'NONE', #127, 5.000000000000000000 ) ;
#198 = ORIENTED_EDGE ( 'NONE', *, *, #43, .T. ) ;
#199 = EDGE_LOOP ( 'NONE', ( #8, #150 ) ) ;
#200 = COORDINATED_UNIVERSAL_TIME_OFFSET ( 1, 0, .AHEAD. ) ;
#201 = DIRECTION ( 'NONE',  ( -0.000000000000000000, -0.000000000000000000, -1.000000000000000000 ) ) ;
#202 = CYLINDRICAL_SURFACE ( 'NONE', #159, 5.000000000000000000 ) ;
#203 = EDGE_CURVE ( 'NONE', #124, #231, #298, .T. ) ;
#204 = FACE_OUTER_BOUND ( 'NONE', #142, .T. ) ;
#205 = EDGE_CURVE ( 'NONE', #124, #294, #227, .T. ) ;
#206 = AXIS2_PLACEMENT_3D ( 'NONE', #154, #246, #134 ) ;
#207 = CARTESIAN_POINT ( 'NONE',  ( 5.000000000000000000, 6.123233995736766282E-16, 0.000000000000000000 ) ) ;
#208 = AXIS2_PLACEMENT_3D ( 'NONE', #72, #49, #260 ) ;
#209 = ADVANCED_FACE ( 'NONE', ( #204 ), #39, .F. ) ;
#210 = APPLICATION_CONTEXT ( 'configuration controlled 3d designs of mechanical parts and assemblies' ) ;
#211 = APPROVAL ( #173, 'NEURÈENÝ' ) ;
#212 = CC_DESIGN_APPROVAL ( #84, ( #175 ) ) ;
#213 = SHAPE_DEFINITION_REPRESENTATION ( #247, #249 ) ;
#214 = EDGE_LOOP ( 'NONE', ( #12, #51, #172, #262 ) ) ;
#215 = APPLICATION_PROTOCOL_DEFINITION ( 'international standard', 'config_control_design', 1994, #210 ) ;
#216 = DIRECTION ( 'NONE',  ( 1.000000000000000000, 0.000000000000000000, 0.000000000000000000 ) ) ;
#217 = ORIENTED_EDGE ( 'NONE', *, *, #203, .F. ) ;
#218 = ORIENTED_EDGE ( 'NONE', *, *, #184, .T. ) ;
#219 = PERSON_AND_ORGANIZATION_ROLE ( 'creator' ) ;
#220 = CARTESIAN_POINT ( 'NONE',  ( 0.000000000000000000, 0.000000000000000000, 0.000000000000000000 ) ) ;
#221 = AXIS2_PLACEMENT_3D ( 'NONE', #182, #87, #158 ) ;
#222 = FACE_OUTER_BOUND ( 'NONE', #289, .T. ) ;
#223 = DATE_AND_TIME ( #52, #248 ) ;
#224 = DIRECTION ( 'NONE',  ( 1.000000000000000000, 0.000000000000000000, 0.000000000000000000 ) ) ;
#225 = CARTESIAN_POINT ( 'NONE',  ( 0.000000000000000000, 0.000000000000000000, 0.000000000000000000 ) ) ;
#226 = DIRECTION ( 'NONE',  ( 0.000000000000000000, 0.000000000000000000, 1.000000000000000000 ) ) ;
#227 = CIRCLE ( 'NONE', #59, 2.750000000000000000 ) ;
#228 = CC_DESIGN_PERSON_AND_ORGANIZATION_ASSIGNMENT ( #116, #265, ( #175 ) ) ;
#229 = ORIENTED_EDGE ( 'NONE', *, *, #252, .T. ) ;
#230 = PERSON_AND_ORGANIZATION ( #307, #31 ) ;
#231 = VERTEX_POINT ( 'NONE', #17 ) ;
#232 = AXIS2_PLACEMENT_3D ( 'NONE', #245, #273, #181 ) ;
#233 = VERTEX_POINT ( 'NONE', #302 ) ;
#234 = DIRECTION ( 'NONE',  ( 1.224646799147353207E-16, 1.000000000000000000, -0.000000000000000000 ) ) ;
#235 = LINE ( 'NONE', #171, #183 ) ;
#236 = VERTEX_POINT ( 'NONE', #89 ) ;
#237 =( NAMED_UNIT ( * ) PLANE_ANGLE_UNIT ( ) SI_UNIT ( $, .RADIAN. ) );
#238 = ORIENTED_EDGE ( 'NONE', *, *, #203, .T. ) ;
#239 = PERSON_AND_ORGANIZATION_ROLE ( 'design_owner' ) ;
#240 = FACE_OUTER_BOUND ( 'NONE', #282, .T. ) ;
#241 = APPROVAL ( #125, 'NEURÈENÝ' ) ;
#242 = CARTESIAN_POINT ( 'NONE',  ( -5.000000000000000000, 0.000000000000000000, 3.000000000000000000 ) ) ;
#243 = AXIS2_PLACEMENT_3D ( 'NONE', #177, #16, #196 ) ;
#244 = APPLICATION_CONTEXT ( 'configuration controlled 3d designs of mechanical parts and assemblies' ) ;
#245 = CARTESIAN_POINT ( 'NONE',  ( 0.000000000000000000, 0.000000000000000000, 3.000000000000000000 ) ) ;
#246 = DIRECTION ( 'NONE',  ( 0.000000000000000000, 0.000000000000000000, 1.000000000000000000 ) ) ;
#247 = PRODUCT_DEFINITION_SHAPE ( 'NONE', 'NONE',  #129 ) ;
#248 = LOCAL_TIME ( 12, 14, 32.00000000000000000, #200 ) ;
#249 = ADVANCED_BREP_SHAPE_REPRESENTATION ( 'a83b', ( #269, #76 ), #305 ) ;
#250 = EDGE_CURVE ( 'NONE', #10, #296, #152, .T. ) ;
#251 = LINE ( 'NONE', #304, #41 ) ;
#252 = EDGE_CURVE ( 'NONE', #236, #144, #95, .T. ) ;
#253 = DIRECTION ( 'NONE',  ( 1.000000000000000000, 0.000000000000000000, 0.000000000000000000 ) ) ;
#254 = CIRCLE ( 'NONE', #303, 2.750000000000000000 ) ;
#255 = PERSON_AND_ORGANIZATION ( #307, #31 ) ;
#256 = CYLINDRICAL_SURFACE ( 'NONE', #9, 2.750000000000000000 ) ;
#257 = ORIENTED_EDGE ( 'NONE', *, *, #267, .F. ) ;
#258 = DATE_TIME_ROLE ( 'classification_date' ) ;
#259 = DIRECTION ( 'NONE',  ( -1.000000000000000000, 1.224646799147353207E-16, 0.000000000000000000 ) ) ;
#260 = DIRECTION ( 'NONE',  ( 1.000000000000000000, 0.000000000000000000, -0.000000000000000000 ) ) ;
#261 = TOROIDAL_SURFACE ( 'NONE', #206, 2.949999999999999734, 0.2000000000000000111 ) ;
#262 = ORIENTED_EDGE ( 'NONE', *, *, #178, .T. ) ;
#263 = DATE_TIME_ROLE ( 'creation_date' ) ;
#264 = DIRECTION ( 'NONE',  ( 1.000000000000000000, 0.000000000000000000, 0.000000000000000000 ) ) ;
#265 = PERSON_AND_ORGANIZATION_ROLE ( 'design_supplier' ) ;
#266 = DIRECTION ( 'NONE',  ( -0.000000000000000000, -0.000000000000000000, -1.000000000000000000 ) ) ;
#267 = EDGE_CURVE ( 'NONE', #231, #233, #254, .T. ) ;
#268 = ORIENTED_EDGE ( 'NONE', *, *, #178, .F. ) ;
#269 = MANIFOLD_SOLID_BREP ( 'Zaoblit1', #143 ) ;
#270 = AXIS2_PLACEMENT_3D ( 'NONE', #83, #234, #259 ) ;
#271 = CC_DESIGN_SECURITY_CLASSIFICATION ( #85, ( #175 ) ) ;
#272 = DIRECTION ( 'NONE',  ( 1.000000000000000000, 0.000000000000000000, -0.000000000000000000 ) ) ;
#273 = DIRECTION ( 'NONE',  ( -0.000000000000000000, -0.000000000000000000, -1.000000000000000000 ) ) ;
#274 = ADVANCED_FACE ( 'NONE', ( #300 ), #261, .F. ) ;
#275 = CARTESIAN_POINT ( 'NONE',  ( 0.000000000000000000, 0.000000000000000000, 0.000000000000000000 ) ) ;
#276 = AXIS2_PLACEMENT_3D ( 'NONE', #75, #45, #264 ) ;
#277 = CARTESIAN_POINT ( 'NONE',  ( 0.000000000000000000, 0.000000000000000000, 3.199999999999980638 ) ) ;
#278 = DIRECTION ( 'NONE',  ( 1.000000000000000000, 0.000000000000000000, 0.000000000000000000 ) ) ;
#279 = EDGE_CURVE ( 'NONE', #231, #236, #36, .T. ) ;
#280 = LOCAL_TIME ( 12, 14, 32.00000000000000000, #77 ) ;
#281 = APPROVAL_PERSON_ORGANIZATION ( #5, #211, #7 ) ;
#282 = EDGE_LOOP ( 'NONE', ( #217, #82, #162, #80 ) ) ;
#283 = FACE_OUTER_BOUND ( 'NONE', #199, .T. ) ;
#284 = ORIENTED_EDGE ( 'NONE', *, *, #34, .T. ) ;
#285 = CALENDAR_DATE ( 2022, 7, 7 ) ;
#286 = DATE_AND_TIME ( #191, #138 ) ;
#287 = DIRECTION ( 'NONE',  ( -1.000000000000000000, 0.000000000000000000, 0.000000000000000000 ) ) ;
#288 = CC_DESIGN_APPROVAL ( #211, ( #129 ) ) ;
#289 = EDGE_LOOP ( 'NONE', ( #119, #257, #193, #4 ) ) ;
#290 = DATE_AND_TIME ( #285, #15 ) ;
#291 = APPLICATION_PROTOCOL_DEFINITION ( 'international standard', 'config_control_design', 1994, #244 ) ;
#292 = EDGE_CURVE ( 'NONE', #233, #144, #160, .T. ) ;
#293 = CYLINDRICAL_SURFACE ( 'NONE', #63, 5.000000000000000000 ) ;
#294 = VERTEX_POINT ( 'NONE', #81 ) ;
#295 = DIRECTION ( 'NONE',  ( 1.000000000000000000, 0.000000000000000000, 0.000000000000000000 ) ) ;
#296 = VERTEX_POINT ( 'NONE', #242 ) ;
#297 = APPROVAL_DATE_TIME ( #148, #84 ) ;
#298 = LINE ( 'NONE', #86, #90 ) ;
#299 = AXIS2_PLACEMENT_3D ( 'NONE', #26, #121, #216 ) ;
#300 = FACE_OUTER_BOUND ( 'NONE', #57, .T. ) ;
#301 = DIRECTION ( 'NONE',  ( -1.000000000000000000, 0.000000000000000000, 0.000000000000000000 ) ) ;
#302 = CARTESIAN_POINT ( 'NONE',  ( -2.750000000000000000, 0.000000000000000000, 3.199999999999980638 ) ) ;
#303 = AXIS2_PLACEMENT_3D ( 'NONE', #277, #137, #224 ) ;
#304 = CARTESIAN_POINT ( 'NONE',  ( -5.000000000000000000, 0.000000000000000000, 3.000000000000000000 ) ) ;
#305 =( GEOMETRIC_REPRESENTATION_CONTEXT ( 3 ) GLOBAL_UNCERTAINTY_ASSIGNED_CONTEXT ( ( #130 ) ) GLOBAL_UNIT_ASSIGNED_CONTEXT ( ( #74, #237, #97 ) ) REPRESENTATION_CONTEXT ( 'NONE', 'WORKASPACE' ) );
#306 = EDGE_CURVE ( 'NONE', #294, #233, #29, .T. ) ;
#307 = PERSON ( 'NEURÈENÝ', 'NEURÈENÝ', 'NEURÈENÝ', ('NEURÈENÝ'), ('NEURÈENÝ'), ('NEURÈENÝ') ) ;
ENDSEC;
END-ISO-10303-21;
