ISO-10303-21;
HEADER;
FILE_DESCRIPTION (( 'STEP AP203' ),
    '1' );
FILE_NAME ('57c9.STEP',
    '2022-07-07T10:28:56',
    ( '' ),
    ( '' ),
    'SwSTEP 2.0',
    'SolidWorks 2019',
    '' );
FILE_SCHEMA (( 'CONFIG_CONTROL_DESIGN' ));
ENDSEC;

DATA;
#1 = CARTESIAN_POINT ( 'NONE',  ( 1.600000000000000089, 1.959434878635765230E-16, 633.0000000000000000 ) ) ;
#2 = CIRCLE ( 'NONE', #53, 1.600000000000000089 ) ;
#3 = DIRECTION ( 'NONE',  ( 1.224646799147353207E-16, 1.000000000000000000, -0.000000000000000000 ) ) ;
#4 = EDGE_CURVE ( 'NONE', #45, #161, #55, .T. ) ;
#5 = DIRECTION ( 'NONE',  ( -1.000000000000000000, 0.000000000000000000, 0.000000000000000000 ) ) ;
#6 = CARTESIAN_POINT ( 'NONE',  ( 1.800000000000000266, 0.000000000000000000, 3.199999999999980638 ) ) ;
#7 = CC_DESIGN_APPROVAL ( #243, ( #274 ) ) ;
#8 = DIRECTION ( 'NONE',  ( 1.000000000000000000, 0.000000000000000000, 0.000000000000000000 ) ) ;
#9 = DIRECTION ( 'NONE',  ( 1.000000000000000000, 0.000000000000000000, 0.000000000000000000 ) ) ;
#10 = CARTESIAN_POINT ( 'NONE',  ( -1.600000000000000089, 0.000000000000000000, 633.0000000000000000 ) ) ;
#11 = DIRECTION ( 'NONE',  ( -1.000000000000000000, 0.000000000000000000, 0.000000000000000000 ) ) ;
#12 = ADVANCED_FACE ( 'NONE', ( #188 ), #236, .T. ) ;
#13 = CARTESIAN_POINT ( 'NONE',  ( 1.600000000000000089, 1.959434878635765230E-16, 633.0000000000000000 ) ) ;
#14 = CALENDAR_DATE ( 2022, 7, 7 ) ;
#15 = COORDINATED_UNIVERSAL_TIME_OFFSET ( 1, 0, .AHEAD. ) ;
#16 = PRODUCT ( '57c9', '57c9', '', ( #86 ) ) ;
#17 = ORIENTED_EDGE ( 'NONE', *, *, #254, .T. ) ;
#18 = PERSON_AND_ORGANIZATION ( #263, #116 ) ;
#19 = ORIENTED_EDGE ( 'NONE', *, *, #172, .T. ) ;
#20 = EDGE_LOOP ( 'NONE', ( #166, #191, #92, #167 ) ) ;
#21 = CIRCLE ( 'NONE', #25, 3.000000000000000444 ) ;
#22 = EDGE_LOOP ( 'NONE', ( #23, #265 ) ) ;
#23 = ORIENTED_EDGE ( 'NONE', *, *, #27, .T. ) ;
#24 = EDGE_LOOP ( 'NONE', ( #140, #121, #26, #54 ) ) ;
#25 = AXIS2_PLACEMENT_3D ( 'NONE', #72, #170, #128 ) ;
#26 = ORIENTED_EDGE ( 'NONE', *, *, #41, .T. ) ;
#27 = EDGE_CURVE ( 'NONE', #278, #161, #286, .T. ) ;
#28 = DIRECTION ( 'NONE',  ( -1.000000000000000000, 1.224646799147354686E-16, 0.000000000000000000 ) ) ;
#29 = CARTESIAN_POINT ( 'NONE',  ( 0.000000000000000000, 0.000000000000000000, 3.000000000000000000 ) ) ;
#30 = MANIFOLD_SOLID_BREP ( 'Zaoblit1', #144 ) ;
#31 = AXIS2_PLACEMENT_3D ( 'NONE', #211, #122, #146 ) ;
#32 = DIRECTION ( 'NONE',  ( -0.000000000000000000, -0.000000000000000000, -1.000000000000000000 ) ) ;
#33 = CARTESIAN_POINT ( 'NONE',  ( 1.800000000000000266, 0.000000000000000000, 2.999999999999990674 ) ) ;
#34 = CARTESIAN_POINT ( 'NONE',  ( -3.000000000000000444, 0.000000000000000000, 3.000000000000000000 ) ) ;
#35 = ADVANCED_FACE ( 'NONE', ( #289 ), #123, .T. ) ;
#36 = PERSON_AND_ORGANIZATION ( #263, #116 ) ;
#37 = CARTESIAN_POINT ( 'NONE',  ( 0.000000000000000000, 0.000000000000000000, 0.000000000000000000 ) ) ;
#38 = APPROVAL ( #179, 'NEURÈENÝ' ) ;
#39 = AXIS2_PLACEMENT_3D ( 'NONE', #29, #124, #218 ) ;
#40 = ADVANCED_BREP_SHAPE_REPRESENTATION ( '57c9', ( #30, #247 ), #82 ) ;
#41 = EDGE_CURVE ( 'NONE', #302, #278, #301, .T. ) ;
#42 = ORIENTED_EDGE ( 'NONE', *, *, #299, .F. ) ;
#43 = PERSON_AND_ORGANIZATION_ROLE ( 'design_owner' ) ;
#44 = AXIS2_PLACEMENT_3D ( 'NONE', #285, #261, #65 ) ;
#45 = VERTEX_POINT ( 'NONE', #283 ) ;
#46 =( NAMED_UNIT ( * ) SI_UNIT ( $, .STERADIAN. ) SOLID_ANGLE_UNIT ( ) );
#47 = DIRECTION ( 'NONE',  ( 0.000000000000000000, 0.000000000000000000, 1.000000000000000000 ) ) ;
#48 = LOCAL_TIME ( 12, 28, 56.00000000000000000, #228 ) ;
#49 = CC_DESIGN_DATE_AND_TIME_ASSIGNMENT ( #202, #277, ( #115 ) ) ;
#50 = DIRECTION ( 'NONE',  ( 0.000000000000000000, 0.000000000000000000, -1.000000000000000000 ) ) ;
#51 = DIRECTION ( 'NONE',  ( -0.000000000000000000, -0.000000000000000000, -1.000000000000000000 ) ) ;
#52 = ORIENTED_EDGE ( 'NONE', *, *, #187, .F. ) ;
#53 = AXIS2_PLACEMENT_3D ( 'NONE', #245, #58, #176 ) ;
#54 = ORIENTED_EDGE ( 'NONE', *, *, #229, .F. ) ;
#55 = CIRCLE ( 'NONE', #91, 0.1999999999999998723 ) ;
#56 = CARTESIAN_POINT ( 'NONE',  ( 0.000000000000000000, 0.000000000000000000, 3.199999999999980638 ) ) ;
#57 = CARTESIAN_POINT ( 'NONE',  ( 0.000000000000000000, 0.000000000000000000, 633.0000000000000000 ) ) ;
#58 = DIRECTION ( 'NONE',  ( 0.000000000000000000, 0.000000000000000000, 1.000000000000000000 ) ) ;
#59 = CYLINDRICAL_SURFACE ( 'NONE', #174, 3.000000000000000444 ) ;
#60 = PLANE ( 'NONE',  #264 ) ;
#61 = LOCAL_TIME ( 12, 28, 56.00000000000000000, #15 ) ;
#62 = ORIENTED_EDGE ( 'NONE', *, *, #181, .T. ) ;
#63 = COORDINATED_UNIVERSAL_TIME_OFFSET ( 1, 0, .AHEAD. ) ;
#64 = CIRCLE ( 'NONE', #39, 3.000000000000000444 ) ;
#65 = DIRECTION ( 'NONE',  ( 1.000000000000000000, 0.000000000000000000, 0.000000000000000000 ) ) ;
#66 = DIRECTION ( 'NONE',  ( 1.000000000000000000, 0.000000000000000000, 0.000000000000000000 ) ) ;
#67 = LINE ( 'NONE', #307, #287 ) ;
#68 = CIRCLE ( 'NONE', #226, 1.600000000000000089 ) ;
#69 = ORIENTED_EDGE ( 'NONE', *, *, #74, .F. ) ;
#70 = VERTEX_POINT ( 'NONE', #258 ) ;
#71 = AXIS2_PLACEMENT_3D ( 'NONE', #56, #150, #152 ) ;
#72 = CARTESIAN_POINT ( 'NONE',  ( 0.000000000000000000, 0.000000000000000000, 0.000000000000000000 ) ) ;
#73 = CARTESIAN_POINT ( 'NONE',  ( 0.000000000000000000, 0.000000000000000000, 3.199999999999980638 ) ) ;
#74 = EDGE_CURVE ( 'NONE', #70, #204, #67, .T. ) ;
#75 = DIRECTION ( 'NONE',  ( 1.000000000000000000, 0.000000000000000000, 0.000000000000000000 ) ) ;
#76 = AXIS2_PLACEMENT_3D ( 'NONE', #295, #78, #175 ) ;
#77 = EDGE_CURVE ( 'NONE', #288, #192, #168, .T. ) ;
#78 = DIRECTION ( 'NONE',  ( 0.000000000000000000, 0.000000000000000000, 1.000000000000000000 ) ) ;
#79 = TOROIDAL_SURFACE ( 'NONE', #206, 1.800000000000000266, 0.2000000000000000111 ) ;
#80 = CARTESIAN_POINT ( 'NONE',  ( 0.000000000000000000, 0.000000000000000000, 0.000000000000000000 ) ) ;
#81 = COORDINATED_UNIVERSAL_TIME_OFFSET ( 1, 0, .AHEAD. ) ;
#82 =( GEOMETRIC_REPRESENTATION_CONTEXT ( 3 ) GLOBAL_UNCERTAINTY_ASSIGNED_CONTEXT ( ( #292 ) ) GLOBAL_UNIT_ASSIGNED_CONTEXT ( ( #185, #178, #46 ) ) REPRESENTATION_CONTEXT ( 'NONE', 'WORKASPACE' ) );
#83 = LOCAL_TIME ( 12, 28, 56.00000000000000000, #63 ) ;
#84 = SECURITY_CLASSIFICATION_LEVEL ( 'unclassified' ) ;
#85 = AXIS2_PLACEMENT_3D ( 'NONE', #6, #262, #50 ) ;
#86 = MECHANICAL_CONTEXT ( 'NONE', #134, 'mechanical' ) ;
#87 = VERTEX_POINT ( 'NONE', #99 ) ;
#88 = PERSON_AND_ORGANIZATION_ROLE ( 'classification_officer' ) ;
#89 = ORIENTED_EDGE ( 'NONE', *, *, #187, .T. ) ;
#90 = DIRECTION ( 'NONE',  ( 0.000000000000000000, 0.000000000000000000, 1.000000000000000000 ) ) ;
#91 = AXIS2_PLACEMENT_3D ( 'NONE', #214, #3, #28 ) ;
#92 = ORIENTED_EDGE ( 'NONE', *, *, #27, .F. ) ;
#93 = CC_DESIGN_PERSON_AND_ORGANIZATION_ASSIGNMENT ( #18, #88, ( #177 ) ) ;
#94 = APPROVAL_DATE_TIME ( #237, #38 ) ;
#95 = ORIENTED_EDGE ( 'NONE', *, *, #205, .T. ) ;
#96 = DIRECTION ( 'NONE',  ( -0.000000000000000000, -0.000000000000000000, -1.000000000000000000 ) ) ;
#97 = ORIENTED_EDGE ( 'NONE', *, *, #74, .T. ) ;
#98 = CARTESIAN_POINT ( 'NONE',  ( 0.000000000000000000, 0.000000000000000000, 3.199999999999980638 ) ) ;
#99 = CARTESIAN_POINT ( 'NONE',  ( -1.600000000000000089, 0.000000000000000000, 633.0000000000000000 ) ) ;
#100 = LOCAL_TIME ( 12, 28, 56.00000000000000000, #81 ) ;
#101 = LINE ( 'NONE', #10, #252 ) ;
#102 = APPROVAL ( #207, 'NEURÈENÝ' ) ;
#103 = FACE_OUTER_BOUND ( 'NONE', #145, .T. ) ;
#104 = DIRECTION ( 'NONE',  ( 1.000000000000000000, 0.000000000000000000, -0.000000000000000000 ) ) ;
#105 = AXIS2_PLACEMENT_3D ( 'NONE', #57, #32, #151 ) ;
#106 = EDGE_CURVE ( 'NONE', #70, #288, #165, .T. ) ;
#107 = FACE_OUTER_BOUND ( 'NONE', #24, .T. ) ;
#108 = PERSON_AND_ORGANIZATION_ROLE ( 'creator' ) ;
#109 = PERSON_AND_ORGANIZATION ( #263, #116 ) ;
#110 = EDGE_LOOP ( 'NONE', ( #69, #42, #120, #19 ) ) ;
#111 = APPROVAL_STATUS ( 'not_yet_approved' ) ;
#112 = ORIENTED_EDGE ( 'NONE', *, *, #254, .F. ) ;
#113 = DATE_AND_TIME ( #298, #142 ) ;
#114 = ADVANCED_FACE ( 'NONE', ( #162 ), #79, .F. ) ;
#115 = PRODUCT_DEFINITION ( 'NEZNÁMÝ', '', #274, #126 ) ;
#116 = ORGANIZATION ( 'NEURÈENÝ', 'NEURÈENÝ', '' ) ;
#117 = ORIENTED_EDGE ( 'NONE', *, *, #272, .T. ) ;
#118 = CC_DESIGN_PERSON_AND_ORGANIZATION_ASSIGNMENT ( #249, #137, ( #274 ) ) ;
#119 = EDGE_LOOP ( 'NONE', ( #138, #186, #117, #231 ) ) ;
#120 = ORIENTED_EDGE ( 'NONE', *, *, #77, .T. ) ;
#121 = ORIENTED_EDGE ( 'NONE', *, *, #272, .F. ) ;
#122 = DIRECTION ( 'NONE',  ( -0.000000000000000000, -0.000000000000000000, -1.000000000000000000 ) ) ;
#123 = CYLINDRICAL_SURFACE ( 'NONE', #31, 3.000000000000000444 ) ;
#124 = DIRECTION ( 'NONE',  ( 0.000000000000000000, 0.000000000000000000, 1.000000000000000000 ) ) ;
#125 = APPROVAL_PERSON_ORGANIZATION ( #232, #243, #273 ) ;
#126 = DESIGN_CONTEXT ( 'detailed design', #253, 'design' ) ;
#127 = DIRECTION ( 'NONE',  ( 0.000000000000000000, 0.000000000000000000, 1.000000000000000000 ) ) ;
#128 = DIRECTION ( 'NONE',  ( 1.000000000000000000, 0.000000000000000000, 0.000000000000000000 ) ) ;
#129 = CARTESIAN_POINT ( 'NONE',  ( -1.800000000000000266, 2.204364238465236069E-16, 2.999999999999990674 ) ) ;
#130 = CIRCLE ( 'NONE', #71, 1.600000000000000089 ) ;
#131 = CARTESIAN_POINT ( 'NONE',  ( 3.000000000000000444, 3.673940397442060361E-16, 0.000000000000000000 ) ) ;
#132 = PERSON_AND_ORGANIZATION_ROLE ( 'creator' ) ;
#133 = ORIENTED_EDGE ( 'NONE', *, *, #156, .T. ) ;
#134 = APPLICATION_CONTEXT ( 'configuration controlled 3d designs of mechanical parts and assemblies' ) ;
#135 = CALENDAR_DATE ( 2022, 7, 7 ) ;
#136 = TOROIDAL_SURFACE ( 'NONE', #76, 1.800000000000000266, 0.2000000000000000111 ) ;
#137 = PERSON_AND_ORGANIZATION_ROLE ( 'design_supplier' ) ;
#138 = ORIENTED_EDGE ( 'NONE', *, *, #156, .F. ) ;
#139 = APPROVAL_DATE_TIME ( #113, #243 ) ;
#140 = ORIENTED_EDGE ( 'NONE', *, *, #4, .F. ) ;
#141 = APPROVAL_DATE_TIME ( #160, #102 ) ;
#142 = LOCAL_TIME ( 12, 28, 56.00000000000000000, #203 ) ;
#143 = DIRECTION ( 'NONE',  ( 1.000000000000000000, 0.000000000000000000, 0.000000000000000000 ) ) ;
#144 = CLOSED_SHELL ( 'NONE', ( #114, #221, #280, #35, #199, #284, #12, #260, #275 ) ) ;
#145 = EDGE_LOOP ( 'NONE', ( #149, #208 ) ) ;
#146 = DIRECTION ( 'NONE',  ( -1.000000000000000000, 0.000000000000000000, 0.000000000000000000 ) ) ;
#147 = CARTESIAN_POINT ( 'NONE',  ( 0.000000000000000000, 0.000000000000000000, 3.000000000000000000 ) ) ;
#148 = EDGE_CURVE ( 'NONE', #227, #302, #164, .T. ) ;
#149 = ORIENTED_EDGE ( 'NONE', *, *, #299, .T. ) ;
#150 = DIRECTION ( 'NONE',  ( 0.000000000000000000, 0.000000000000000000, 1.000000000000000000 ) ) ;
#151 = DIRECTION ( 'NONE',  ( -1.000000000000000000, 0.000000000000000000, 0.000000000000000000 ) ) ;
#152 = DIRECTION ( 'NONE',  ( 1.000000000000000000, 0.000000000000000000, 0.000000000000000000 ) ) ;
#153 = CARTESIAN_POINT ( 'NONE',  ( 0.000000000000000000, 0.000000000000000000, 3.000000000000000000 ) ) ;
#154 = PLANE ( 'NONE',  #216 ) ;
#155 = DIRECTION ( 'NONE',  ( 1.000000000000000000, 0.000000000000000000, 0.000000000000000000 ) ) ;
#156 = EDGE_CURVE ( 'NONE', #227, #87, #68, .T. ) ;
#157 = EDGE_LOOP ( 'NONE', ( #235, #112 ) ) ;
#158 = CIRCLE ( 'NONE', #281, 1.800000000000000266 ) ;
#159 = DATE_AND_TIME ( #300, #48 ) ;
#160 = DATE_AND_TIME ( #14, #61 ) ;
#161 = VERTEX_POINT ( 'NONE', #129 ) ;
#162 = FACE_OUTER_BOUND ( 'NONE', #20, .T. ) ;
#163 = CC_DESIGN_SECURITY_CLASSIFICATION ( #177, ( #274 ) ) ;
#164 = LINE ( 'NONE', #1, #255 ) ;
#165 = CIRCLE ( 'NONE', #213, 3.000000000000000444 ) ;
#166 = ORIENTED_EDGE ( 'NONE', *, *, #205, .F. ) ;
#167 = ORIENTED_EDGE ( 'NONE', *, *, #41, .F. ) ;
#168 = LINE ( 'NONE', #241, #259 ) ;
#169 = CC_DESIGN_PERSON_AND_ORGANIZATION_ASSIGNMENT ( #109, #43, ( #16 ) ) ;
#170 = DIRECTION ( 'NONE',  ( 0.000000000000000000, 0.000000000000000000, 1.000000000000000000 ) ) ;
#171 = DIRECTION ( 'NONE',  ( 0.000000000000000000, 0.000000000000000000, 1.000000000000000000 ) ) ;
#172 = EDGE_CURVE ( 'NONE', #192, #204, #184, .T. ) ;
#173 = CARTESIAN_POINT ( 'NONE',  ( 0.000000000000000000, 0.000000000000000000, 3.000000000000000000 ) ) ;
#174 = AXIS2_PLACEMENT_3D ( 'NONE', #153, #223, #11 ) ;
#175 = DIRECTION ( 'NONE',  ( 1.000000000000000000, 0.000000000000000000, 0.000000000000000000 ) ) ;
#176 = DIRECTION ( 'NONE',  ( 1.000000000000000000, 0.000000000000000000, 0.000000000000000000 ) ) ;
#177 = SECURITY_CLASSIFICATION ( '', '', #84 ) ;
#178 =( NAMED_UNIT ( * ) PLANE_ANGLE_UNIT ( ) SI_UNIT ( $, .RADIAN. ) );
#179 = APPROVAL_STATUS ( 'not_yet_approved' ) ;
#180 = ORIENTED_EDGE ( 'NONE', *, *, #106, .F. ) ;
#181 = EDGE_CURVE ( 'NONE', #87, #45, #101, .T. ) ;
#182 = APPROVAL_ROLE ( '' ) ;
#183 = EDGE_LOOP ( 'NONE', ( #89, #133 ) ) ;
#184 = CIRCLE ( 'NONE', #268, 3.000000000000000444 ) ;
#185 =( LENGTH_UNIT ( ) NAMED_UNIT ( * ) SI_UNIT ( .MILLI., .METRE. ) );
#186 = ORIENTED_EDGE ( 'NONE', *, *, #148, .T. ) ;
#187 = EDGE_CURVE ( 'NONE', #87, #227, #2, .T. ) ;
#188 = FACE_OUTER_BOUND ( 'NONE', #250, .T. ) ;
#189 = CC_DESIGN_PERSON_AND_ORGANIZATION_ASSIGNMENT ( #36, #132, ( #274 ) ) ;
#190 = CARTESIAN_POINT ( 'NONE',  ( 0.000000000000000000, 0.000000000000000000, 633.0000000000000000 ) ) ;
#191 = ORIENTED_EDGE ( 'NONE', *, *, #4, .T. ) ;
#192 = VERTEX_POINT ( 'NONE', #244 ) ;
#193 = APPROVAL_PERSON_ORGANIZATION ( #251, #102, #276 ) ;
#194 = DIRECTION ( 'NONE',  ( -0.000000000000000000, -0.000000000000000000, -1.000000000000000000 ) ) ;
#195 = DIRECTION ( 'NONE',  ( 0.000000000000000000, 0.000000000000000000, 1.000000000000000000 ) ) ;
#196 = CARTESIAN_POINT ( 'NONE',  ( 0.000000000000000000, 0.000000000000000000, 0.000000000000000000 ) ) ;
#197 = DIRECTION ( 'NONE',  ( 1.000000000000000000, 0.000000000000000000, -0.000000000000000000 ) ) ;
#198 = AXIS2_PLACEMENT_3D ( 'NONE', #80, #246, #242 ) ;
#199 = ADVANCED_FACE ( 'NONE', ( #267, #103 ), #154, .T. ) ;
#200 = FACE_OUTER_BOUND ( 'NONE', #157, .T. ) ;
#201 = PRODUCT_DEFINITION_SHAPE ( 'NONE', 'NONE',  #115 ) ;
#202 = DATE_AND_TIME ( #135, #100 ) ;
#203 = COORDINATED_UNIVERSAL_TIME_OFFSET ( 1, 0, .AHEAD. ) ;
#204 = VERTEX_POINT ( 'NONE', #131 ) ;
#205 = EDGE_CURVE ( 'NONE', #45, #302, #224, .T. ) ;
#206 = AXIS2_PLACEMENT_3D ( 'NONE', #98, #47, #143 ) ;
#207 = APPROVAL_STATUS ( 'not_yet_approved' ) ;
#208 = ORIENTED_EDGE ( 'NONE', *, *, #106, .T. ) ;
#209 = PERSON_AND_ORGANIZATION ( #263, #116 ) ;
#210 = CARTESIAN_POINT ( 'NONE',  ( 0.000000000000000000, 0.000000000000000000, 633.0000000000000000 ) ) ;
#211 = CARTESIAN_POINT ( 'NONE',  ( 0.000000000000000000, 0.000000000000000000, 3.000000000000000000 ) ) ;
#212 = ORIENTED_EDGE ( 'NONE', *, *, #148, .F. ) ;
#213 = AXIS2_PLACEMENT_3D ( 'NONE', #147, #240, #66 ) ;
#214 = CARTESIAN_POINT ( 'NONE',  ( -1.800000000000000266, 2.204364238465236069E-16, 3.199999999999980638 ) ) ;
#215 = DIRECTION ( 'NONE',  ( -0.000000000000000000, -0.000000000000000000, -1.000000000000000000 ) ) ;
#216 = AXIS2_PLACEMENT_3D ( 'NONE', #293, #171, #104 ) ;
#217 = APPROVAL_PERSON_ORGANIZATION ( #209, #38, #182 ) ;
#218 = DIRECTION ( 'NONE',  ( 1.000000000000000000, 0.000000000000000000, 0.000000000000000000 ) ) ;
#219 = DIRECTION ( 'NONE',  ( 0.000000000000000000, 0.000000000000000000, 1.000000000000000000 ) ) ;
#220 = CC_DESIGN_DATE_AND_TIME_ASSIGNMENT ( #159, #230, ( #177 ) ) ;
#221 = ADVANCED_FACE ( 'NONE', ( #271 ), #225, .T. ) ;
#222 = PRODUCT_RELATED_PRODUCT_CATEGORY ( 'detail', '', ( #16 ) ) ;
#223 = DIRECTION ( 'NONE',  ( -0.000000000000000000, -0.000000000000000000, -1.000000000000000000 ) ) ;
#224 = CIRCLE ( 'NONE', #239, 1.600000000000000089 ) ;
#225 = CYLINDRICAL_SURFACE ( 'NONE', #105, 1.600000000000000089 ) ;
#226 = AXIS2_PLACEMENT_3D ( 'NONE', #190, #256, #8 ) ;
#227 = VERTEX_POINT ( 'NONE', #13 ) ;
#228 = COORDINATED_UNIVERSAL_TIME_OFFSET ( 1, 0, .AHEAD. ) ;
#229 = EDGE_CURVE ( 'NONE', #161, #278, #158, .T. ) ;
#230 = DATE_TIME_ROLE ( 'classification_date' ) ;
#231 = ORIENTED_EDGE ( 'NONE', *, *, #181, .F. ) ;
#232 = PERSON_AND_ORGANIZATION ( #263, #116 ) ;
#233 = PERSON_AND_ORGANIZATION ( #263, #116 ) ;
#234 = CC_DESIGN_APPROVAL ( #102, ( #115 ) ) ;
#235 = ORIENTED_EDGE ( 'NONE', *, *, #172, .F. ) ;
#236 = CYLINDRICAL_SURFACE ( 'NONE', #306, 1.600000000000000089 ) ;
#237 = DATE_AND_TIME ( #279, #83 ) ;
#238 = DIRECTION ( 'NONE',  ( -0.000000000000000000, -0.000000000000000000, -1.000000000000000000 ) ) ;
#239 = AXIS2_PLACEMENT_3D ( 'NONE', #73, #127, #75 ) ;
#240 = DIRECTION ( 'NONE',  ( 0.000000000000000000, 0.000000000000000000, 1.000000000000000000 ) ) ;
#241 = CARTESIAN_POINT ( 'NONE',  ( -3.000000000000000444, 0.000000000000000000, 3.000000000000000000 ) ) ;
#242 = DIRECTION ( 'NONE',  ( 1.000000000000000000, 0.000000000000000000, -0.000000000000000000 ) ) ;
#243 = APPROVAL ( #111, 'NEURÈENÝ' ) ;
#244 = CARTESIAN_POINT ( 'NONE',  ( -3.000000000000000444, 0.000000000000000000, 0.000000000000000000 ) ) ;
#245 = CARTESIAN_POINT ( 'NONE',  ( 0.000000000000000000, 0.000000000000000000, 633.0000000000000000 ) ) ;
#246 = DIRECTION ( 'NONE',  ( 0.000000000000000000, 0.000000000000000000, 1.000000000000000000 ) ) ;
#247 = AXIS2_PLACEMENT_3D ( 'NONE', #37, #90, #155 ) ;
#248 = APPLICATION_PROTOCOL_DEFINITION ( 'international standard', 'config_control_design', 1994, #134 ) ;
#249 = PERSON_AND_ORGANIZATION ( #263, #116 ) ;
#250 = EDGE_LOOP ( 'NONE', ( #212, #52, #62, #95 ) ) ;
#251 = PERSON_AND_ORGANIZATION ( #263, #116 ) ;
#252 = VECTOR ( 'NONE', #194, 1000.000000000000000 ) ;
#253 = APPLICATION_CONTEXT ( 'configuration controlled 3d designs of mechanical parts and assemblies' ) ;
#254 = EDGE_CURVE ( 'NONE', #204, #192, #21, .T. ) ;
#255 = VECTOR ( 'NONE', #96, 1000.000000000000000 ) ;
#256 = DIRECTION ( 'NONE',  ( 0.000000000000000000, 0.000000000000000000, 1.000000000000000000 ) ) ;
#257 = SHAPE_DEFINITION_REPRESENTATION ( #201, #40 ) ;
#258 = CARTESIAN_POINT ( 'NONE',  ( 3.000000000000000444, 3.673940397442060361E-16, 3.000000000000000000 ) ) ;
#259 = VECTOR ( 'NONE', #238, 1000.000000000000000 ) ;
#260 = ADVANCED_FACE ( 'NONE', ( #269 ), #60, .T. ) ;
#261 = DIRECTION ( 'NONE',  ( -0.000000000000000000, -0.000000000000000000, -1.000000000000000000 ) ) ;
#262 = DIRECTION ( 'NONE',  ( 0.000000000000000000, -1.000000000000000000, 0.000000000000000000 ) ) ;
#263 = PERSON ( 'NEURÈENÝ', 'NEURÈENÝ', 'NEURÈENÝ', ('NEURÈENÝ'), ('NEURÈENÝ'), ('NEURÈENÝ') ) ;
#264 = AXIS2_PLACEMENT_3D ( 'NONE', #266, #219, #197 ) ;
#265 = ORIENTED_EDGE ( 'NONE', *, *, #229, .T. ) ;
#266 = CARTESIAN_POINT ( 'NONE',  ( 0.000000000000000000, 0.000000000000000000, 633.0000000000000000 ) ) ;
#267 = FACE_BOUND ( 'NONE', #22, .T. ) ;
#268 = AXIS2_PLACEMENT_3D ( 'NONE', #196, #195, #294 ) ;
#269 = FACE_OUTER_BOUND ( 'NONE', #183, .T. ) ;
#270 = FACE_OUTER_BOUND ( 'NONE', #305, .T. ) ;
#271 = FACE_OUTER_BOUND ( 'NONE', #119, .T. ) ;
#272 = EDGE_CURVE ( 'NONE', #302, #45, #130, .T. ) ;
#273 = APPROVAL_ROLE ( '' ) ;
#274 = PRODUCT_DEFINITION_FORMATION_WITH_SPECIFIED_SOURCE ( 'LIBOVOLNÝ', '', #16, .NOT_KNOWN. ) ;
#275 = ADVANCED_FACE ( 'NONE', ( #107 ), #136, .F. ) ;
#276 = APPROVAL_ROLE ( '' ) ;
#277 = DATE_TIME_ROLE ( 'creation_date' ) ;
#278 = VERTEX_POINT ( 'NONE', #33 ) ;
#279 = CALENDAR_DATE ( 2022, 7, 7 ) ;
#280 = ADVANCED_FACE ( 'NONE', ( #270 ), #59, .T. ) ;
#281 = AXIS2_PLACEMENT_3D ( 'NONE', #173, #290, #9 ) ;
#282 = APPLICATION_PROTOCOL_DEFINITION ( 'international standard', 'config_control_design', 1994, #253 ) ;
#283 = CARTESIAN_POINT ( 'NONE',  ( -1.600000000000000089, 0.000000000000000000, 3.199999999999980638 ) ) ;
#284 = ADVANCED_FACE ( 'NONE', ( #200 ), #296, .F. ) ;
#285 = CARTESIAN_POINT ( 'NONE',  ( 0.000000000000000000, 0.000000000000000000, 3.000000000000000000 ) ) ;
#286 = CIRCLE ( 'NONE', #44, 1.800000000000000266 ) ;
#287 = VECTOR ( 'NONE', #51, 1000.000000000000000 ) ;
#288 = VERTEX_POINT ( 'NONE', #34 ) ;
#289 = FACE_OUTER_BOUND ( 'NONE', #110, .T. ) ;
#290 = DIRECTION ( 'NONE',  ( -0.000000000000000000, -0.000000000000000000, -1.000000000000000000 ) ) ;
#291 = CC_DESIGN_PERSON_AND_ORGANIZATION_ASSIGNMENT ( #233, #108, ( #115 ) ) ;
#292 = UNCERTAINTY_MEASURE_WITH_UNIT (LENGTH_MEASURE( 1.000000000000000082E-05 ), #185, 'distance_accuracy_value', 'NONE');
#293 = CARTESIAN_POINT ( 'NONE',  ( 0.000000000000000000, 0.000000000000000000, 3.000000000000000000 ) ) ;
#294 = DIRECTION ( 'NONE',  ( 1.000000000000000000, 0.000000000000000000, 0.000000000000000000 ) ) ;
#295 = CARTESIAN_POINT ( 'NONE',  ( 0.000000000000000000, 0.000000000000000000, 3.199999999999980638 ) ) ;
#296 = PLANE ( 'NONE',  #198 ) ;
#297 = CC_DESIGN_APPROVAL ( #38, ( #177 ) ) ;
#298 = CALENDAR_DATE ( 2022, 7, 7 ) ;
#299 = EDGE_CURVE ( 'NONE', #288, #70, #64, .T. ) ;
#300 = CALENDAR_DATE ( 2022, 7, 7 ) ;
#301 = CIRCLE ( 'NONE', #85, 0.2000000000000000944 ) ;
#302 = VERTEX_POINT ( 'NONE', #303 ) ;
#303 = CARTESIAN_POINT ( 'NONE',  ( 1.600000000000000089, 1.959434878635765230E-16, 3.199999999999980638 ) ) ;
#304 = ORIENTED_EDGE ( 'NONE', *, *, #77, .F. ) ;
#305 = EDGE_LOOP ( 'NONE', ( #180, #97, #17, #304 ) ) ;
#306 = AXIS2_PLACEMENT_3D ( 'NONE', #210, #215, #5 ) ;
#307 = CARTESIAN_POINT ( 'NONE',  ( 3.000000000000000444, 3.673940397442060361E-16, 3.000000000000000000 ) ) ;
ENDSEC;
END-ISO-10303-21;
