ISO-10303-21;
HEADER;
FILE_DESCRIPTION (( 'STEP AP203' ),
    '1' );
FILE_NAME ('5f85.STEP',
    '2022-07-07T10:30:55',
    ( '' ),
    ( '' ),
    'SwSTEP 2.0',
    'SolidWorks 2019',
    '' );
FILE_SCHEMA (( 'CONFIG_CONTROL_DESIGN' ));
ENDSEC;

DATA;
#1 = DIRECTION ( 'NONE',  ( 1.000000000000000000, 0.000000000000000000, 0.000000000000000000 ) ) ;
#2 = CC_DESIGN_APPROVAL ( #243, ( #43 ) ) ;
#3 = ADVANCED_BREP_SHAPE_REPRESENTATION ( '5f85', ( #139, #272 ), #204 ) ;
#4 = DIRECTION ( 'NONE',  ( -1.000000000000000000, 1.224646799147353207E-16, 0.000000000000000000 ) ) ;
#5 = FACE_OUTER_BOUND ( 'NONE', #231, .T. ) ;
#6 = CYLINDRICAL_SURFACE ( 'NONE', #129, 3.000000000000000444 ) ;
#7 = APPROVAL_PERSON_ORGANIZATION ( #258, #299, #17 ) ;
#8 = FACE_OUTER_BOUND ( 'NONE', #305, .T. ) ;
#9 = DIRECTION ( 'NONE',  ( -0.000000000000000000, -0.000000000000000000, -1.000000000000000000 ) ) ;
#10 = CARTESIAN_POINT ( 'NONE',  ( -3.000000000000000444, 0.000000000000000000, 3.000000000000000000 ) ) ;
#11 = DIRECTION ( 'NONE',  ( 0.000000000000000000, 0.000000000000000000, 1.000000000000000000 ) ) ;
#12 = PERSON_AND_ORGANIZATION_ROLE ( 'classification_officer' ) ;
#13 = APPLICATION_CONTEXT ( 'configuration controlled 3d designs of mechanical parts and assemblies' ) ;
#14 = AXIS2_PLACEMENT_3D ( 'NONE', #185, #287, #167 ) ;
#15 = COORDINATED_UNIVERSAL_TIME_OFFSET ( 1, 0, .AHEAD. ) ;
#16 = CYLINDRICAL_SURFACE ( 'NONE', #278, 1.500000000000000222 ) ;
#17 = APPROVAL_ROLE ( '' ) ;
#18 = CARTESIAN_POINT ( 'NONE',  ( 0.000000000000000000, 0.000000000000000000, 3.199999999999980638 ) ) ;
#19 = EDGE_LOOP ( 'NONE', ( #143, #137 ) ) ;
#20 = ORIENTED_EDGE ( 'NONE', *, *, #252, .F. ) ;
#21 = VECTOR ( 'NONE', #294, 1000.000000000000000 ) ;
#22 = ORIENTED_EDGE ( 'NONE', *, *, #166, .T. ) ;
#23 = PRODUCT_RELATED_PRODUCT_CATEGORY ( 'detail', '', ( #195 ) ) ;
#24 = APPLICATION_CONTEXT ( 'configuration controlled 3d designs of mechanical parts and assemblies' ) ;
#25 = EDGE_LOOP ( 'NONE', ( #285, #187, #121, #212 ) ) ;
#26 = AXIS2_PLACEMENT_3D ( 'NONE', #27, #192, #117 ) ;
#27 = CARTESIAN_POINT ( 'NONE',  ( 0.000000000000000000, 0.000000000000000000, 318.0000000000000000 ) ) ;
#28 = VECTOR ( 'NONE', #9, 1000.000000000000000 ) ;
#29 = ORIENTED_EDGE ( 'NONE', *, *, #175, .F. ) ;
#30 = DIRECTION ( 'NONE',  ( -1.000000000000000000, 0.000000000000000000, 0.000000000000000000 ) ) ;
#31 = CC_DESIGN_PERSON_AND_ORGANIZATION_ASSIGNMENT ( #92, #69, ( #146 ) ) ;
#32 = DIRECTION ( 'NONE',  ( -0.000000000000000000, -0.000000000000000000, -1.000000000000000000 ) ) ;
#33 = DIRECTION ( 'NONE',  ( 0.000000000000000000, 0.000000000000000000, 1.000000000000000000 ) ) ;
#34 = CIRCLE ( 'NONE', #225, 1.700000000000000400 ) ;
#35 = FACE_OUTER_BOUND ( 'NONE', #284, .T. ) ;
#36 = ADVANCED_FACE ( 'NONE', ( #229 ), #16, .T. ) ;
#37 = CARTESIAN_POINT ( 'NONE',  ( 0.000000000000000000, 0.000000000000000000, 3.199999999999980638 ) ) ;
#38 = CIRCLE ( 'NONE', #98, 1.700000000000000400 ) ;
#39 = EDGE_CURVE ( 'NONE', #94, #263, #248, .T. ) ;
#40 = PERSON_AND_ORGANIZATION_ROLE ( 'design_supplier' ) ;
#41 = CALENDAR_DATE ( 2022, 7, 7 ) ;
#42 = VERTEX_POINT ( 'NONE', #239 ) ;
#43 = SECURITY_CLASSIFICATION ( '', '', #135 ) ;
#44 = PERSON_AND_ORGANIZATION_ROLE ( 'design_owner' ) ;
#45 = EDGE_CURVE ( 'NONE', #214, #99, #132, .T. ) ;
#46 = CARTESIAN_POINT ( 'NONE',  ( -3.000000000000000444, 0.000000000000000000, 3.000000000000000000 ) ) ;
#47 = DIRECTION ( 'NONE',  ( 0.000000000000000000, 0.000000000000000000, 1.000000000000000000 ) ) ;
#48 = ORIENTED_EDGE ( 'NONE', *, *, #283, .F. ) ;
#49 = ORIENTED_EDGE ( 'NONE', *, *, #175, .T. ) ;
#50 = ORIENTED_EDGE ( 'NONE', *, *, #249, .F. ) ;
#51 = VERTEX_POINT ( 'NONE', #183 ) ;
#52 = AXIS2_PLACEMENT_3D ( 'NONE', #208, #123, #115 ) ;
#53 = ORIENTED_EDGE ( 'NONE', *, *, #39, .T. ) ;
#54 = ORIENTED_EDGE ( 'NONE', *, *, #166, .F. ) ;
#55 = LOCAL_TIME ( 12, 30, 55.00000000000000000, #15 ) ;
#56 = DIRECTION ( 'NONE',  ( -0.000000000000000000, -0.000000000000000000, -1.000000000000000000 ) ) ;
#57 = CYLINDRICAL_SURFACE ( 'NONE', #66, 3.000000000000000444 ) ;
#58 = ADVANCED_FACE ( 'NONE', ( #5 ), #125, .T. ) ;
#59 = CARTESIAN_POINT ( 'NONE',  ( 0.000000000000000000, 0.000000000000000000, 318.0000000000000000 ) ) ;
#60 = APPROVAL_PERSON_ORGANIZATION ( #274, #286, #165 ) ;
#61 = FACE_OUTER_BOUND ( 'NONE', #124, .T. ) ;
#62 =( NAMED_UNIT ( * ) PLANE_ANGLE_UNIT ( ) SI_UNIT ( $, .RADIAN. ) );
#63 = CIRCLE ( 'NONE', #234, 0.2000000000000000944 ) ;
#64 = COORDINATED_UNIVERSAL_TIME_OFFSET ( 1, 0, .AHEAD. ) ;
#65 = EDGE_CURVE ( 'NONE', #241, #74, #184, .T. ) ;
#66 = AXIS2_PLACEMENT_3D ( 'NONE', #296, #196, #244 ) ;
#67 = APPROVAL_STATUS ( 'not_yet_approved' ) ;
#68 = PERSON_AND_ORGANIZATION ( #89, #281 ) ;
#69 = PERSON_AND_ORGANIZATION_ROLE ( 'creator' ) ;
#70 = CARTESIAN_POINT ( 'NONE',  ( 1.500000000000000222, 1.836970198721030181E-16, 318.0000000000000000 ) ) ;
#71 = PERSON_AND_ORGANIZATION ( #89, #281 ) ;
#72 = DIRECTION ( 'NONE',  ( 1.000000000000000000, 0.000000000000000000, 0.000000000000000000 ) ) ;
#73 = CC_DESIGN_PERSON_AND_ORGANIZATION_ASSIGNMENT ( #275, #12, ( #43 ) ) ;
#74 = VERTEX_POINT ( 'NONE', #70 ) ;
#75 = LOCAL_TIME ( 12, 30, 55.00000000000000000, #160 ) ;
#76 = CARTESIAN_POINT ( 'NONE',  ( 0.000000000000000000, 0.000000000000000000, 3.000000000000000000 ) ) ;
#77 = ORIENTED_EDGE ( 'NONE', *, *, #249, .T. ) ;
#78 = DIRECTION ( 'NONE',  ( 0.000000000000000000, 0.000000000000000000, 1.000000000000000000 ) ) ;
#79 = CARTESIAN_POINT ( 'NONE',  ( -1.700000000000000400, 2.081899558550500773E-16, 2.999999999999990674 ) ) ;
#80 = LINE ( 'NONE', #218, #21 ) ;
#81 = DIRECTION ( 'NONE',  ( 1.000000000000000000, 0.000000000000000000, 0.000000000000000000 ) ) ;
#82 = AXIS2_PLACEMENT_3D ( 'NONE', #59, #220, #178 ) ;
#83 = DIRECTION ( 'NONE',  ( -0.000000000000000000, -0.000000000000000000, -1.000000000000000000 ) ) ;
#84 = APPROVAL_STATUS ( 'not_yet_approved' ) ;
#85 = CC_DESIGN_PERSON_AND_ORGANIZATION_ASSIGNMENT ( #113, #44, ( #195 ) ) ;
#86 = DATE_AND_TIME ( #136, #55 ) ;
#87 = CC_DESIGN_APPROVAL ( #299, ( #186 ) ) ;
#88 = DATE_AND_TIME ( #41, #149 ) ;
#89 = PERSON ( 'NEURÈENÝ', 'NEURÈENÝ', 'NEURÈENÝ', ('NEURÈENÝ'), ('NEURÈENÝ'), ('NEURÈENÝ') ) ;
#90 = DATE_TIME_ROLE ( 'classification_date' ) ;
#91 = DIRECTION ( 'NONE',  ( 1.224646799147353207E-16, 1.000000000000000000, -0.000000000000000000 ) ) ;
#92 = PERSON_AND_ORGANIZATION ( #89, #281 ) ;
#93 = CARTESIAN_POINT ( 'NONE',  ( 1.700000000000000400, 0.000000000000000000, 3.199999999999980638 ) ) ;
#94 = VERTEX_POINT ( 'NONE', #242 ) ;
#95 = ORIENTED_EDGE ( 'NONE', *, *, #221, .T. ) ;
#96 = AXIS2_PLACEMENT_3D ( 'NONE', #147, #91, #4 ) ;
#97 = ORIENTED_EDGE ( 'NONE', *, *, #197, .F. ) ;
#98 = AXIS2_PLACEMENT_3D ( 'NONE', #154, #56, #297 ) ;
#99 = VERTEX_POINT ( 'NONE', #290 ) ;
#100 = EDGE_CURVE ( 'NONE', #99, #214, #158, .T. ) ;
#101 = DIRECTION ( 'NONE',  ( -1.000000000000000000, 0.000000000000000000, 0.000000000000000000 ) ) ;
#102 = CARTESIAN_POINT ( 'NONE',  ( 0.000000000000000000, 0.000000000000000000, 318.0000000000000000 ) ) ;
#103 = CIRCLE ( 'NONE', #261, 1.500000000000000222 ) ;
#104 = CARTESIAN_POINT ( 'NONE',  ( 3.000000000000000444, 3.673940397442060361E-16, 3.000000000000000000 ) ) ;
#105 = CC_DESIGN_PERSON_AND_ORGANIZATION_ASSIGNMENT ( #277, #162, ( #186 ) ) ;
#106 = UNCERTAINTY_MEASURE_WITH_UNIT (LENGTH_MEASURE( 1.000000000000000082E-05 ), #107, 'distance_accuracy_value', 'NONE');
#107 =( LENGTH_UNIT ( ) NAMED_UNIT ( * ) SI_UNIT ( .MILLI., .METRE. ) );
#108 = AXIS2_PLACEMENT_3D ( 'NONE', #279, #47, #217 ) ;
#109 = DIRECTION ( 'NONE',  ( 1.000000000000000000, 0.000000000000000000, -0.000000000000000000 ) ) ;
#110 = LOCAL_TIME ( 12, 30, 55.00000000000000000, #64 ) ;
#111 = CARTESIAN_POINT ( 'NONE',  ( -1.500000000000000222, 0.000000000000000000, 318.0000000000000000 ) ) ;
#112 = APPROVAL_STATUS ( 'not_yet_approved' ) ;
#113 = PERSON_AND_ORGANIZATION ( #89, #281 ) ;
#114 = ADVANCED_FACE ( 'NONE', ( #191, #163 ), #288, .T. ) ;
#115 = DIRECTION ( 'NONE',  ( 1.000000000000000000, 0.000000000000000000, 0.000000000000000000 ) ) ;
#116 = CALENDAR_DATE ( 2022, 7, 7 ) ;
#117 = DIRECTION ( 'NONE',  ( 1.000000000000000000, 0.000000000000000000, 0.000000000000000000 ) ) ;
#118 = ORIENTED_EDGE ( 'NONE', *, *, #283, .T. ) ;
#119 =( NAMED_UNIT ( * ) SI_UNIT ( $, .STERADIAN. ) SOLID_ANGLE_UNIT ( ) );
#120 = EDGE_CURVE ( 'NONE', #144, #267, #253, .T. ) ;
#121 = ORIENTED_EDGE ( 'NONE', *, *, #197, .T. ) ;
#122 = CC_DESIGN_APPROVAL ( #286, ( #146 ) ) ;
#123 = DIRECTION ( 'NONE',  ( 0.000000000000000000, 0.000000000000000000, 1.000000000000000000 ) ) ;
#124 = EDGE_LOOP ( 'NONE', ( #54, #215, #168, #48 ) ) ;
#125 = CYLINDRICAL_SURFACE ( 'NONE', #161, 1.500000000000000222 ) ;
#126 = CC_DESIGN_PERSON_AND_ORGANIZATION_ASSIGNMENT ( #68, #40, ( #186 ) ) ;
#127 = CARTESIAN_POINT ( 'NONE',  ( 3.000000000000000444, 3.673940397442060361E-16, 3.000000000000000000 ) ) ;
#128 = LINE ( 'NONE', #10, #28 ) ;
#129 = AXIS2_PLACEMENT_3D ( 'NONE', #223, #268, #194 ) ;
#130 = PLANE ( 'NONE',  #82 ) ;
#131 = DIRECTION ( 'NONE',  ( -0.000000000000000000, -0.000000000000000000, -1.000000000000000000 ) ) ;
#132 = CIRCLE ( 'NONE', #108, 3.000000000000000444 ) ;
#133 = CARTESIAN_POINT ( 'NONE',  ( 3.000000000000000444, 3.673940397442060361E-16, 0.000000000000000000 ) ) ;
#134 = CC_DESIGN_SECURITY_CLASSIFICATION ( #43, ( #186 ) ) ;
#135 = SECURITY_CLASSIFICATION_LEVEL ( 'unclassified' ) ;
#136 = CALENDAR_DATE ( 2022, 7, 7 ) ;
#137 = ORIENTED_EDGE ( 'NONE', *, *, #291, .T. ) ;
#138 = APPROVAL_PERSON_ORGANIZATION ( #71, #243, #303 ) ;
#139 = MANIFOLD_SOLID_BREP ( 'Zaoblit1', #289 ) ;
#140 = CALENDAR_DATE ( 2022, 7, 7 ) ;
#141 = DIRECTION ( 'NONE',  ( 0.000000000000000000, 0.000000000000000000, -1.000000000000000000 ) ) ;
#142 = DIRECTION ( 'NONE',  ( 0.000000000000000000, 0.000000000000000000, 1.000000000000000000 ) ) ;
#143 = ORIENTED_EDGE ( 'NONE', *, *, #65, .T. ) ;
#144 = VERTEX_POINT ( 'NONE', #46 ) ;
#145 = EDGE_LOOP ( 'NONE', ( #172, #53, #29, #302 ) ) ;
#146 = PRODUCT_DEFINITION ( 'NEZNÁMÝ', '', #186, #262 ) ;
#147 = CARTESIAN_POINT ( 'NONE',  ( -1.700000000000000400, 2.081899558550500773E-16, 3.199999999999980638 ) ) ;
#148 = ORIENTED_EDGE ( 'NONE', *, *, #276, .T. ) ;
#149 = LOCAL_TIME ( 12, 30, 55.00000000000000000, #226 ) ;
#150 = ORIENTED_EDGE ( 'NONE', *, *, #100, .F. ) ;
#151 = EDGE_CURVE ( 'NONE', #51, #42, #63, .T. ) ;
#152 = CARTESIAN_POINT ( 'NONE',  ( 0.000000000000000000, 0.000000000000000000, 318.0000000000000000 ) ) ;
#153 = CARTESIAN_POINT ( 'NONE',  ( 0.000000000000000000, 0.000000000000000000, 3.199999999999980638 ) ) ;
#154 = CARTESIAN_POINT ( 'NONE',  ( 0.000000000000000000, 0.000000000000000000, 3.000000000000000000 ) ) ;
#155 = TOROIDAL_SURFACE ( 'NONE', #193, 1.700000000000000400, 0.2000000000000000111 ) ;
#156 = PLANE ( 'NONE',  #180 ) ;
#157 = EDGE_CURVE ( 'NONE', #94, #51, #103, .T. ) ;
#158 = CIRCLE ( 'NONE', #52, 3.000000000000000444 ) ;
#159 = DATE_TIME_ROLE ( 'creation_date' ) ;
#160 = COORDINATED_UNIVERSAL_TIME_OFFSET ( 1, 0, .AHEAD. ) ;
#161 = AXIS2_PLACEMENT_3D ( 'NONE', #102, #233, #101 ) ;
#162 = PERSON_AND_ORGANIZATION_ROLE ( 'creator' ) ;
#163 = FACE_OUTER_BOUND ( 'NONE', #235, .T. ) ;
#164 = AXIS2_PLACEMENT_3D ( 'NONE', #153, #11, #271 ) ;
#165 = APPROVAL_ROLE ( '' ) ;
#166 = EDGE_CURVE ( 'NONE', #267, #144, #200, .T. ) ;
#167 = DIRECTION ( 'NONE',  ( 1.000000000000000000, 0.000000000000000000, 0.000000000000000000 ) ) ;
#168 = ORIENTED_EDGE ( 'NONE', *, *, #45, .T. ) ;
#169 = AXIS2_PLACEMENT_3D ( 'NONE', #254, #142, #72 ) ;
#170 = CIRCLE ( 'NONE', #188, 1.500000000000000222 ) ;
#171 = ORIENTED_EDGE ( 'NONE', *, *, #120, .F. ) ;
#172 = ORIENTED_EDGE ( 'NONE', *, *, #157, .F. ) ;
#173 = DIRECTION ( 'NONE',  ( 1.000000000000000000, 0.000000000000000000, -0.000000000000000000 ) ) ;
#174 = DIRECTION ( 'NONE',  ( 0.000000000000000000, 0.000000000000000000, 1.000000000000000000 ) ) ;
#175 = EDGE_CURVE ( 'NONE', #42, #263, #34, .T. ) ;
#176 = DIRECTION ( 'NONE',  ( 1.000000000000000000, 0.000000000000000000, 0.000000000000000000 ) ) ;
#177 = DIRECTION ( 'NONE',  ( 0.000000000000000000, 0.000000000000000000, 1.000000000000000000 ) ) ;
#178 = DIRECTION ( 'NONE',  ( 1.000000000000000000, 0.000000000000000000, -0.000000000000000000 ) ) ;
#179 = CC_DESIGN_DATE_AND_TIME_ASSIGNMENT ( #227, #159, ( #146 ) ) ;
#180 = AXIS2_PLACEMENT_3D ( 'NONE', #293, #174, #109 ) ;
#181 = CALENDAR_DATE ( 2022, 7, 7 ) ;
#182 = APPROVAL_DATE_TIME ( #250, #299 ) ;
#183 = CARTESIAN_POINT ( 'NONE',  ( 1.500000000000000222, 1.836970198721030181E-16, 3.199999999999980638 ) ) ;
#184 = CIRCLE ( 'NONE', #26, 1.500000000000000222 ) ;
#185 = CARTESIAN_POINT ( 'NONE',  ( 0.000000000000000000, 0.000000000000000000, 3.000000000000000000 ) ) ;
#186 = PRODUCT_DEFINITION_FORMATION_WITH_SPECIFIED_SOURCE ( 'LIBOVOLNÝ', '', #195, .NOT_KNOWN. ) ;
#187 = ORIENTED_EDGE ( 'NONE', *, *, #65, .F. ) ;
#188 = AXIS2_PLACEMENT_3D ( 'NONE', #152, #33, #176 ) ;
#189 = ORIENTED_EDGE ( 'NONE', *, *, #39, .F. ) ;
#190 = ORIENTED_EDGE ( 'NONE', *, *, #221, .F. ) ;
#191 = FACE_BOUND ( 'NONE', #265, .T. ) ;
#192 = DIRECTION ( 'NONE',  ( 0.000000000000000000, 0.000000000000000000, 1.000000000000000000 ) ) ;
#193 = AXIS2_PLACEMENT_3D ( 'NONE', #37, #177, #81 ) ;
#194 = DIRECTION ( 'NONE',  ( -1.000000000000000000, 0.000000000000000000, 0.000000000000000000 ) ) ;
#195 = PRODUCT ( '5f85', '5f85', '', ( #301 ) ) ;
#196 = DIRECTION ( 'NONE',  ( -0.000000000000000000, -0.000000000000000000, -1.000000000000000000 ) ) ;
#197 = EDGE_CURVE ( 'NONE', #241, #94, #80, .T. ) ;
#198 = CARTESIAN_POINT ( 'NONE',  ( 1.500000000000000222, 1.836970198721030181E-16, 318.0000000000000000 ) ) ;
#199 = LINE ( 'NONE', #127, #210 ) ;
#200 = CIRCLE ( 'NONE', #14, 3.000000000000000444 ) ;
#201 = DIRECTION ( 'NONE',  ( 0.000000000000000000, 0.000000000000000000, 1.000000000000000000 ) ) ;
#202 = APPROVAL_DATE_TIME ( #88, #286 ) ;
#203 = DIRECTION ( 'NONE',  ( 1.000000000000000000, 0.000000000000000000, 0.000000000000000000 ) ) ;
#204 =( GEOMETRIC_REPRESENTATION_CONTEXT ( 3 ) GLOBAL_UNCERTAINTY_ASSIGNED_CONTEXT ( ( #106 ) ) GLOBAL_UNIT_ASSIGNED_CONTEXT ( ( #107, #62, #119 ) ) REPRESENTATION_CONTEXT ( 'NONE', 'WORKASPACE' ) );
#205 = DIRECTION ( 'NONE',  ( 0.000000000000000000, -1.000000000000000000, 0.000000000000000000 ) ) ;
#206 = ADVANCED_FACE ( 'NONE', ( #246 ), #155, .F. ) ;
#207 = DATE_AND_TIME ( #140, #75 ) ;
#208 = CARTESIAN_POINT ( 'NONE',  ( 0.000000000000000000, 0.000000000000000000, 0.000000000000000000 ) ) ;
#209 = ORIENTED_EDGE ( 'NONE', *, *, #120, .T. ) ;
#210 = VECTOR ( 'NONE', #83, 1000.000000000000000 ) ;
#211 = ADVANCED_FACE ( 'NONE', ( #61 ), #6, .T. ) ;
#212 = ORIENTED_EDGE ( 'NONE', *, *, #157, .T. ) ;
#213 = EDGE_LOOP ( 'NONE', ( #20, #171, #118, #307 ) ) ;
#214 = VERTEX_POINT ( 'NONE', #133 ) ;
#215 = ORIENTED_EDGE ( 'NONE', *, *, #252, .T. ) ;
#216 = ADVANCED_FACE ( 'NONE', ( #35 ), #219, .F. ) ;
#217 = DIRECTION ( 'NONE',  ( 1.000000000000000000, 0.000000000000000000, 0.000000000000000000 ) ) ;
#218 = CARTESIAN_POINT ( 'NONE',  ( -1.500000000000000222, 0.000000000000000000, 318.0000000000000000 ) ) ;
#219 = TOROIDAL_SURFACE ( 'NONE', #228, 1.700000000000000400, 0.2000000000000000111 ) ;
#220 = DIRECTION ( 'NONE',  ( 0.000000000000000000, 0.000000000000000000, 1.000000000000000000 ) ) ;
#221 = EDGE_CURVE ( 'NONE', #51, #94, #240, .T. ) ;
#222 = LINE ( 'NONE', #198, #256 ) ;
#223 = CARTESIAN_POINT ( 'NONE',  ( 0.000000000000000000, 0.000000000000000000, 3.000000000000000000 ) ) ;
#224 = CARTESIAN_POINT ( 'NONE',  ( 0.000000000000000000, 0.000000000000000000, 3.199999999999980638 ) ) ;
#225 = AXIS2_PLACEMENT_3D ( 'NONE', #76, #32, #247 ) ;
#226 = COORDINATED_UNIVERSAL_TIME_OFFSET ( 1, 0, .AHEAD. ) ;
#227 = DATE_AND_TIME ( #181, #110 ) ;
#228 = AXIS2_PLACEMENT_3D ( 'NONE', #224, #201, #270 ) ;
#229 = FACE_OUTER_BOUND ( 'NONE', #25, .T. ) ;
#230 = APPLICATION_PROTOCOL_DEFINITION ( 'international standard', 'config_control_design', 1994, #13 ) ;
#231 = EDGE_LOOP ( 'NONE', ( #260, #148, #95, #97 ) ) ;
#232 = DIRECTION ( 'NONE',  ( 0.000000000000000000, 0.000000000000000000, 1.000000000000000000 ) ) ;
#233 = DIRECTION ( 'NONE',  ( -0.000000000000000000, -0.000000000000000000, -1.000000000000000000 ) ) ;
#234 = AXIS2_PLACEMENT_3D ( 'NONE', #93, #205, #141 ) ;
#235 = EDGE_LOOP ( 'NONE', ( #209, #22 ) ) ;
#236 = ADVANCED_FACE ( 'NONE', ( #245 ), #130, .T. ) ;
#237 = LOCAL_TIME ( 12, 30, 55.00000000000000000, #298 ) ;
#238 = ORIENTED_EDGE ( 'NONE', *, *, #151, .T. ) ;
#239 = CARTESIAN_POINT ( 'NONE',  ( 1.700000000000000400, 0.000000000000000000, 2.999999999999990674 ) ) ;
#240 = CIRCLE ( 'NONE', #164, 1.500000000000000222 ) ;
#241 = VERTEX_POINT ( 'NONE', #111 ) ;
#242 = CARTESIAN_POINT ( 'NONE',  ( -1.500000000000000222, 0.000000000000000000, 3.199999999999980638 ) ) ;
#243 = APPROVAL ( #112, 'NEURÈENÝ' ) ;
#244 = DIRECTION ( 'NONE',  ( -1.000000000000000000, 0.000000000000000000, 0.000000000000000000 ) ) ;
#245 = FACE_OUTER_BOUND ( 'NONE', #19, .T. ) ;
#246 = FACE_OUTER_BOUND ( 'NONE', #145, .T. ) ;
#247 = DIRECTION ( 'NONE',  ( 1.000000000000000000, 0.000000000000000000, 0.000000000000000000 ) ) ;
#248 = CIRCLE ( 'NONE', #96, 0.2000000000000000944 ) ;
#249 = EDGE_CURVE ( 'NONE', #263, #42, #38, .T. ) ;
#250 = DATE_AND_TIME ( #116, #237 ) ;
#251 = SHAPE_DEFINITION_REPRESENTATION ( #292, #3 ) ;
#252 = EDGE_CURVE ( 'NONE', #267, #214, #199, .T. ) ;
#253 = CIRCLE ( 'NONE', #169, 3.000000000000000444 ) ;
#254 = CARTESIAN_POINT ( 'NONE',  ( 0.000000000000000000, 0.000000000000000000, 3.000000000000000000 ) ) ;
#255 = CARTESIAN_POINT ( 'NONE',  ( 0.000000000000000000, 0.000000000000000000, 0.000000000000000000 ) ) ;
#256 = VECTOR ( 'NONE', #131, 1000.000000000000000 ) ;
#257 = CARTESIAN_POINT ( 'NONE',  ( 0.000000000000000000, 0.000000000000000000, 3.000000000000000000 ) ) ;
#258 = PERSON_AND_ORGANIZATION ( #89, #281 ) ;
#259 = ORIENTED_EDGE ( 'NONE', *, *, #45, .F. ) ;
#260 = ORIENTED_EDGE ( 'NONE', *, *, #291, .F. ) ;
#261 = AXIS2_PLACEMENT_3D ( 'NONE', #18, #304, #1 ) ;
#262 = DESIGN_CONTEXT ( 'detailed design', #24, 'design' ) ;
#263 = VERTEX_POINT ( 'NONE', #79 ) ;
#264 = DIRECTION ( 'NONE',  ( -0.000000000000000000, -0.000000000000000000, -1.000000000000000000 ) ) ;
#265 = EDGE_LOOP ( 'NONE', ( #49, #77 ) ) ;
#266 = AXIS2_PLACEMENT_3D ( 'NONE', #257, #78, #173 ) ;
#267 = VERTEX_POINT ( 'NONE', #104 ) ;
#268 = DIRECTION ( 'NONE',  ( -0.000000000000000000, -0.000000000000000000, -1.000000000000000000 ) ) ;
#269 = CC_DESIGN_DATE_AND_TIME_ASSIGNMENT ( #207, #90, ( #43 ) ) ;
#270 = DIRECTION ( 'NONE',  ( 1.000000000000000000, 0.000000000000000000, 0.000000000000000000 ) ) ;
#271 = DIRECTION ( 'NONE',  ( 1.000000000000000000, 0.000000000000000000, 0.000000000000000000 ) ) ;
#272 = AXIS2_PLACEMENT_3D ( 'NONE', #255, #232, #203 ) ;
#273 = FACE_OUTER_BOUND ( 'NONE', #213, .T. ) ;
#274 = PERSON_AND_ORGANIZATION ( #89, #281 ) ;
#275 = PERSON_AND_ORGANIZATION ( #89, #281 ) ;
#276 = EDGE_CURVE ( 'NONE', #74, #51, #222, .T. ) ;
#277 = PERSON_AND_ORGANIZATION ( #89, #281 ) ;
#278 = AXIS2_PLACEMENT_3D ( 'NONE', #282, #264, #30 ) ;
#279 = CARTESIAN_POINT ( 'NONE',  ( 0.000000000000000000, 0.000000000000000000, 0.000000000000000000 ) ) ;
#280 = APPROVAL_DATE_TIME ( #86, #243 ) ;
#281 = ORGANIZATION ( 'NEURÈENÝ', 'NEURÈENÝ', '' ) ;
#282 = CARTESIAN_POINT ( 'NONE',  ( 0.000000000000000000, 0.000000000000000000, 318.0000000000000000 ) ) ;
#283 = EDGE_CURVE ( 'NONE', #144, #99, #128, .T. ) ;
#284 = EDGE_LOOP ( 'NONE', ( #189, #190, #238, #50 ) ) ;
#285 = ORIENTED_EDGE ( 'NONE', *, *, #276, .F. ) ;
#286 = APPROVAL ( #84, 'NEURÈENÝ' ) ;
#287 = DIRECTION ( 'NONE',  ( 0.000000000000000000, 0.000000000000000000, 1.000000000000000000 ) ) ;
#288 = PLANE ( 'NONE',  #266 ) ;
#289 = CLOSED_SHELL ( 'NONE', ( #206, #58, #211, #306, #114, #295, #36, #236, #216 ) ) ;
#290 = CARTESIAN_POINT ( 'NONE',  ( -3.000000000000000444, 0.000000000000000000, 0.000000000000000000 ) ) ;
#291 = EDGE_CURVE ( 'NONE', #74, #241, #170, .T. ) ;
#292 = PRODUCT_DEFINITION_SHAPE ( 'NONE', 'NONE',  #146 ) ;
#293 = CARTESIAN_POINT ( 'NONE',  ( 0.000000000000000000, 0.000000000000000000, 0.000000000000000000 ) ) ;
#294 = DIRECTION ( 'NONE',  ( -0.000000000000000000, -0.000000000000000000, -1.000000000000000000 ) ) ;
#295 = ADVANCED_FACE ( 'NONE', ( #8 ), #156, .F. ) ;
#296 = CARTESIAN_POINT ( 'NONE',  ( 0.000000000000000000, 0.000000000000000000, 3.000000000000000000 ) ) ;
#297 = DIRECTION ( 'NONE',  ( 1.000000000000000000, 0.000000000000000000, 0.000000000000000000 ) ) ;
#298 = COORDINATED_UNIVERSAL_TIME_OFFSET ( 1, 0, .AHEAD. ) ;
#299 = APPROVAL ( #67, 'NEURÈENÝ' ) ;
#300 = APPLICATION_PROTOCOL_DEFINITION ( 'international standard', 'config_control_design', 1994, #24 ) ;
#301 = MECHANICAL_CONTEXT ( 'NONE', #13, 'mechanical' ) ;
#302 = ORIENTED_EDGE ( 'NONE', *, *, #151, .F. ) ;
#303 = APPROVAL_ROLE ( '' ) ;
#304 = DIRECTION ( 'NONE',  ( 0.000000000000000000, 0.000000000000000000, 1.000000000000000000 ) ) ;
#305 = EDGE_LOOP ( 'NONE', ( #150, #259 ) ) ;
#306 = ADVANCED_FACE ( 'NONE', ( #273 ), #57, .T. ) ;
#307 = ORIENTED_EDGE ( 'NONE', *, *, #100, .T. ) ;
ENDSEC;
END-ISO-10303-21;
