ISO-10303-21;
HEADER;
FILE_DESCRIPTION (( 'STEP AP203' ),
    '1' );
FILE_NAME ('f8e3.STEP',
    '2023-10-10T08:54:48',
    ( '' ),
    ( '' ),
    'SwSTEP 2.0',
    'SolidWorks 2019',
    '' );
FILE_SCHEMA (( 'CONFIG_CONTROL_DESIGN' ));
ENDSEC;

DATA;
#1 = DIRECTION ( 'NONE',  ( 0.000000000000000000, 0.000000000000000000, 1.000000000000000000 ) ) ;
#2 = ADVANCED_FACE ( 'NONE', ( #79 ), #207, .T. ) ;
#3 = CC_DESIGN_APPROVAL ( #223, ( #44 ) ) ;
#4 = CC_DESIGN_DATE_AND_TIME_ASSIGNMENT ( #222, #52, ( #33 ) ) ;
#5 = FACE_BOUND ( 'NONE', #97, .T. ) ;
#6 = AXIS2_PLACEMENT_3D ( 'NONE', #113, #68, #190 ) ;
#7 = DIRECTION ( 'NONE',  ( 1.000000000000000000, 0.000000000000000000, 0.000000000000000000 ) ) ;
#8 = DIRECTION ( 'NONE',  ( -0.000000000000000000, -0.000000000000000000, -1.000000000000000000 ) ) ;
#9 = ORIENTED_EDGE ( 'NONE', *, *, #95, .T. ) ;
#10 = APPROVAL ( #127, 'NEURÈENÝ' ) ;
#11 =( NAMED_UNIT ( * ) SI_UNIT ( $, .STERADIAN. ) SOLID_ANGLE_UNIT ( ) );
#12 = CIRCLE ( 'NONE', #31, 1.250000000000000000 ) ;
#13 = ORIENTED_EDGE ( 'NONE', *, *, #243, .F. ) ;
#14 = APPROVAL_PERSON_ORGANIZATION ( #135, #223, #211 ) ;
#15 = ORIENTED_EDGE ( 'NONE', *, *, #205, .T. ) ;
#16 = ADVANCED_FACE ( 'NONE', ( #23 ), #162, .T. ) ;
#17 = EDGE_LOOP ( 'NONE', ( #34, #15, #120, #198 ) ) ;
#18 = ORIENTED_EDGE ( 'NONE', *, *, #243, .T. ) ;
#19 = APPROVAL_ROLE ( '' ) ;
#20 = CARTESIAN_POINT ( 'NONE',  ( -1.250000000000000000, 0.000000000000000000, 0.000000000000000000 ) ) ;
#21 = DIRECTION ( 'NONE',  ( -0.000000000000000000, -0.000000000000000000, -1.000000000000000000 ) ) ;
#22 = CARTESIAN_POINT ( 'NONE',  ( 1.250000000000000000, 1.530808498934191571E-16, 0.000000000000000000 ) ) ;
#23 = FACE_OUTER_BOUND ( 'NONE', #122, .T. ) ;
#24 = EDGE_CURVE ( 'NONE', #77, #94, #59, .T. ) ;
#25 = DIRECTION ( 'NONE',  ( -1.000000000000000000, 0.000000000000000000, 0.000000000000000000 ) ) ;
#26 = AXIS2_PLACEMENT_3D ( 'NONE', #43, #204, #201 ) ;
#27 = EDGE_CURVE ( 'NONE', #173, #179, #12, .T. ) ;
#28 = ADVANCED_BREP_SHAPE_REPRESENTATION ( 'f8e3', ( #50, #230 ), #111 ) ;
#29 = COORDINATED_UNIVERSAL_TIME_OFFSET ( 1, 0, .AHEAD. ) ;
#30 = CALENDAR_DATE ( 2023, 10, 10 ) ;
#31 = AXIS2_PLACEMENT_3D ( 'NONE', #237, #236, #64 ) ;
#32 = PERSON_AND_ORGANIZATION_ROLE ( 'design_owner' ) ;
#33 = PRODUCT_DEFINITION ( 'NEZNÁMÝ', '', #44, #167 ) ;
#34 = ORIENTED_EDGE ( 'NONE', *, *, #172, .F. ) ;
#35 = DIRECTION ( 'NONE',  ( 0.000000000000000000, 0.000000000000000000, 1.000000000000000000 ) ) ;
#36 = EDGE_CURVE ( 'NONE', #215, #179, #69, .T. ) ;
#37 = LOCAL_TIME ( 10, 54, 48.00000000000000000, #29 ) ;
#38 = VERTEX_POINT ( 'NONE', #218 ) ;
#39 = APPLICATION_CONTEXT ( 'configuration controlled 3d designs of mechanical parts and assemblies' ) ;
#40 = SHAPE_DEFINITION_REPRESENTATION ( #100, #28 ) ;
#41 = ORIENTED_EDGE ( 'NONE', *, *, #115, .F. ) ;
#42 = DATE_AND_TIME ( #101, #74 ) ;
#43 = CARTESIAN_POINT ( 'NONE',  ( 0.000000000000000000, 0.000000000000000000, 1.199999999999999956 ) ) ;
#44 = PRODUCT_DEFINITION_FORMATION_WITH_SPECIFIED_SOURCE ( 'LIBOVOLNÝ', '', #177, .NOT_KNOWN. ) ;
#45 = DIRECTION ( 'NONE',  ( 1.000000000000000000, 0.000000000000000000, 0.000000000000000000 ) ) ;
#46 = DIRECTION ( 'NONE',  ( 1.000000000000000000, 0.000000000000000000, -0.000000000000000000 ) ) ;
#47 = PERSON ( 'NEURÈENÝ', 'NEURÈENÝ', 'NEURÈENÝ', ('NEURÈENÝ'), ('NEURÈENÝ'), ('NEURÈENÝ') ) ;
#48 = CARTESIAN_POINT ( 'NONE',  ( 0.000000000000000000, 0.000000000000000000, 1.199999999999999956 ) ) ;
#49 = VECTOR ( 'NONE', #163, 1000.000000000000000 ) ;
#50 = MANIFOLD_SOLID_BREP ( 'Pøidat vysunutím3', #210 ) ;
#51 = DIRECTION ( 'NONE',  ( 1.000000000000000000, 0.000000000000000000, -0.000000000000000000 ) ) ;
#52 = DATE_TIME_ROLE ( 'creation_date' ) ;
#53 = APPLICATION_PROTOCOL_DEFINITION ( 'international standard', 'config_control_design', 1994, #107 ) ;
#54 = ADVANCED_FACE ( 'NONE', ( #131 ), #112, .T. ) ;
#55 = DIRECTION ( 'NONE',  ( 0.000000000000000000, 0.000000000000000000, 1.000000000000000000 ) ) ;
#56 = VECTOR ( 'NONE', #86, 1000.000000000000000 ) ;
#57 = COORDINATED_UNIVERSAL_TIME_OFFSET ( 1, 0, .AHEAD. ) ;
#58 = ORIENTED_EDGE ( 'NONE', *, *, #219, .T. ) ;
#59 = CIRCLE ( 'NONE', #185, 0.4000000000000000222 ) ;
#60 = ORIENTED_EDGE ( 'NONE', *, *, #168, .T. ) ;
#61 = COORDINATED_UNIVERSAL_TIME_OFFSET ( 1, 0, .AHEAD. ) ;
#62 = PERSON_AND_ORGANIZATION ( #47, #80 ) ;
#63 = CC_DESIGN_PERSON_AND_ORGANIZATION_ASSIGNMENT ( #245, #76, ( #33 ) ) ;
#64 = DIRECTION ( 'NONE',  ( 1.000000000000000000, 0.000000000000000000, 0.000000000000000000 ) ) ;
#65 = CC_DESIGN_APPROVAL ( #109, ( #33 ) ) ;
#66 = CARTESIAN_POINT ( 'NONE',  ( 0.000000000000000000, 0.000000000000000000, 0.000000000000000000 ) ) ;
#67 = DIRECTION ( 'NONE',  ( 0.000000000000000000, 0.000000000000000000, 1.000000000000000000 ) ) ;
#68 = DIRECTION ( 'NONE',  ( 0.000000000000000000, 0.000000000000000000, 1.000000000000000000 ) ) ;
#69 = LINE ( 'NONE', #186, #49 ) ;
#70 = CIRCLE ( 'NONE', #225, 0.4000000000000000222 ) ;
#71 = DATE_AND_TIME ( #192, #37 ) ;
#72 = COORDINATED_UNIVERSAL_TIME_OFFSET ( 1, 0, .AHEAD. ) ;
#73 = ORIENTED_EDGE ( 'NONE', *, *, #134, .F. ) ;
#74 = LOCAL_TIME ( 10, 54, 48.00000000000000000, #147 ) ;
#75 = ORIENTED_EDGE ( 'NONE', *, *, #95, .F. ) ;
#76 = PERSON_AND_ORGANIZATION_ROLE ( 'creator' ) ;
#77 = VERTEX_POINT ( 'NONE', #220 ) ;
#78 = SECURITY_CLASSIFICATION_LEVEL ( 'unclassified' ) ;
#79 = FACE_OUTER_BOUND ( 'NONE', #246, .T. ) ;
#80 = ORGANIZATION ( 'NEURÈENÝ', 'NEURÈENÝ', '' ) ;
#81 = ORIENTED_EDGE ( 'NONE', *, *, #219, .F. ) ;
#82 = ADVANCED_FACE ( 'NONE', ( #146 ), #84, .T. ) ;
#83 = DATE_AND_TIME ( #250, #160 ) ;
#84 = CYLINDRICAL_SURFACE ( 'NONE', #143, 1.250000000000000000 ) ;
#85 = CARTESIAN_POINT ( 'NONE',  ( 0.4000000000000000222, 4.898587196589413075E-17, 160.0000000000000284 ) ) ;
#86 = DIRECTION ( 'NONE',  ( -0.000000000000000000, -0.000000000000000000, -1.000000000000000000 ) ) ;
#87 = CARTESIAN_POINT ( 'NONE',  ( 0.000000000000000000, 0.000000000000000000, 160.0000000000000284 ) ) ;
#88 = DIRECTION ( 'NONE',  ( -1.000000000000000000, 0.000000000000000000, 0.000000000000000000 ) ) ;
#89 = AXIS2_PLACEMENT_3D ( 'NONE', #133, #1, #238 ) ;
#90 = UNCERTAINTY_MEASURE_WITH_UNIT (LENGTH_MEASURE( 1.000000000000000082E-05 ), #241, 'distance_accuracy_value', 'NONE');
#91 = AXIS2_PLACEMENT_3D ( 'NONE', #209, #150, #235 ) ;
#92 = APPROVAL_PERSON_ORGANIZATION ( #175, #109, #194 ) ;
#93 = PLANE ( 'NONE',  #126 ) ;
#94 = VERTEX_POINT ( 'NONE', #85 ) ;
#95 = EDGE_CURVE ( 'NONE', #215, #38, #151, .T. ) ;
#96 = AXIS2_PLACEMENT_3D ( 'NONE', #165, #67, #46 ) ;
#97 = EDGE_LOOP ( 'NONE', ( #196, #41 ) ) ;
#98 = CC_DESIGN_SECURITY_CLASSIFICATION ( #156, ( #44 ) ) ;
#99 = ORIENTED_EDGE ( 'NONE', *, *, #115, .T. ) ;
#100 = PRODUCT_DEFINITION_SHAPE ( 'NONE', 'NONE',  #33 ) ;
#101 = CALENDAR_DATE ( 2023, 10, 10 ) ;
#102 = EDGE_LOOP ( 'NONE', ( #181, #75, #157, #144 ) ) ;
#103 = ORIENTED_EDGE ( 'NONE', *, *, #24, .F. ) ;
#104 = CIRCLE ( 'NONE', #26, 1.250000000000000000 ) ;
#105 = CARTESIAN_POINT ( 'NONE',  ( -1.250000000000000000, 0.000000000000000000, 1.199999999999999956 ) ) ;
#106 = PERSON_AND_ORGANIZATION_ROLE ( 'creator' ) ;
#107 = APPLICATION_CONTEXT ( 'configuration controlled 3d designs of mechanical parts and assemblies' ) ;
#108 = CARTESIAN_POINT ( 'NONE',  ( 0.000000000000000000, 0.000000000000000000, 160.0000000000000284 ) ) ;
#109 = APPROVAL ( #121, 'NEURÈENÝ' ) ;
#110 = CARTESIAN_POINT ( 'NONE',  ( 1.250000000000000000, 1.530808498934191571E-16, 1.199999999999999956 ) ) ;
#111 =( GEOMETRIC_REPRESENTATION_CONTEXT ( 3 ) GLOBAL_UNCERTAINTY_ASSIGNED_CONTEXT ( ( #90 ) ) GLOBAL_UNIT_ASSIGNED_CONTEXT ( ( #241, #119, #11 ) ) REPRESENTATION_CONTEXT ( 'NONE', 'WORKASPACE' ) );
#112 = CYLINDRICAL_SURFACE ( 'NONE', #254, 0.4000000000000000222 ) ;
#113 = CARTESIAN_POINT ( 'NONE',  ( 0.000000000000000000, 0.000000000000000000, 1.199999999999999956 ) ) ;
#114 = CC_DESIGN_APPROVAL ( #10, ( #156 ) ) ;
#115 = EDGE_CURVE ( 'NONE', #142, #242, #180, .T. ) ;
#116 = CARTESIAN_POINT ( 'NONE',  ( -0.4000000000000000222, 0.000000000000000000, 1.199999999999999956 ) ) ;
#117 = CARTESIAN_POINT ( 'NONE',  ( 0.000000000000000000, 0.000000000000000000, 1.199999999999999956 ) ) ;
#118 = EDGE_LOOP ( 'NONE', ( #9, #229 ) ) ;
#119 =( NAMED_UNIT ( * ) PLANE_ANGLE_UNIT ( ) SI_UNIT ( $, .RADIAN. ) );
#120 = ORIENTED_EDGE ( 'NONE', *, *, #27, .T. ) ;
#121 = APPROVAL_STATUS ( 'not_yet_approved' ) ;
#122 = EDGE_LOOP ( 'NONE', ( #178, #58 ) ) ;
#123 = PERSON_AND_ORGANIZATION_ROLE ( 'design_supplier' ) ;
#124 = EDGE_CURVE ( 'NONE', #242, #142, #206, .T. ) ;
#125 = DIRECTION ( 'NONE',  ( -0.000000000000000000, -0.000000000000000000, -1.000000000000000000 ) ) ;
#126 = AXIS2_PLACEMENT_3D ( 'NONE', #226, #55, #171 ) ;
#127 = APPROVAL_STATUS ( 'not_yet_approved' ) ;
#128 = LINE ( 'NONE', #148, #216 ) ;
#129 = ADVANCED_FACE ( 'NONE', ( #221 ), #132, .F. ) ;
#130 = DATE_TIME_ROLE ( 'classification_date' ) ;
#131 = FACE_OUTER_BOUND ( 'NONE', #249, .T. ) ;
#132 = PLANE ( 'NONE',  #193 ) ;
#133 = CARTESIAN_POINT ( 'NONE',  ( 0.000000000000000000, 0.000000000000000000, 0.000000000000000000 ) ) ;
#134 = EDGE_CURVE ( 'NONE', #179, #173, #187, .T. ) ;
#135 = PERSON_AND_ORGANIZATION ( #47, #80 ) ;
#136 = AXIS2_PLACEMENT_3D ( 'NONE', #87, #255, #88 ) ;
#137 = VECTOR ( 'NONE', #8, 1000.000000000000000 ) ;
#138 = PRODUCT_RELATED_PRODUCT_CATEGORY ( 'detail', '', ( #177 ) ) ;
#139 = APPLICATION_PROTOCOL_DEFINITION ( 'international standard', 'config_control_design', 1994, #39 ) ;
#140 = DIRECTION ( 'NONE',  ( 1.000000000000000000, 0.000000000000000000, 0.000000000000000000 ) ) ;
#141 = MECHANICAL_CONTEXT ( 'NONE', #39, 'mechanical' ) ;
#142 = VERTEX_POINT ( 'NONE', #152 ) ;
#143 = AXIS2_PLACEMENT_3D ( 'NONE', #48, #21, #184 ) ;
#144 = ORIENTED_EDGE ( 'NONE', *, *, #134, .T. ) ;
#145 = CC_DESIGN_DATE_AND_TIME_ASSIGNMENT ( #42, #130, ( #156 ) ) ;
#146 = FACE_OUTER_BOUND ( 'NONE', #102, .T. ) ;
#147 = COORDINATED_UNIVERSAL_TIME_OFFSET ( 1, 0, .AHEAD. ) ;
#148 = CARTESIAN_POINT ( 'NONE',  ( -0.4000000000000000222, 0.000000000000000000, 160.0000000000000284 ) ) ;
#149 = DIRECTION ( 'NONE',  ( 1.000000000000000000, 0.000000000000000000, 0.000000000000000000 ) ) ;
#150 = DIRECTION ( 'NONE',  ( 0.000000000000000000, 0.000000000000000000, 1.000000000000000000 ) ) ;
#151 = CIRCLE ( 'NONE', #239, 1.250000000000000000 ) ;
#152 = CARTESIAN_POINT ( 'NONE',  ( 0.4000000000000000222, 4.898587196589413075E-17, 1.199999999999999956 ) ) ;
#153 = CC_DESIGN_PERSON_AND_ORGANIZATION_ASSIGNMENT ( #213, #32, ( #177 ) ) ;
#154 = CARTESIAN_POINT ( 'NONE',  ( 0.4000000000000000222, 4.898587196589413075E-17, 160.0000000000000284 ) ) ;
#155 = LINE ( 'NONE', #154, #137 ) ;
#156 = SECURITY_CLASSIFICATION ( '', '', #78 ) ;
#157 = ORIENTED_EDGE ( 'NONE', *, *, #36, .T. ) ;
#158 = CC_DESIGN_PERSON_AND_ORGANIZATION_ASSIGNMENT ( #252, #161, ( #156 ) ) ;
#159 = ORIENTED_EDGE ( 'NONE', *, *, #27, .F. ) ;
#160 = LOCAL_TIME ( 10, 54, 48.00000000000000000, #61 ) ;
#161 = PERSON_AND_ORGANIZATION_ROLE ( 'classification_officer' ) ;
#162 = PLANE ( 'NONE',  #96 ) ;
#163 = DIRECTION ( 'NONE',  ( -0.000000000000000000, -0.000000000000000000, -1.000000000000000000 ) ) ;
#164 = CARTESIAN_POINT ( 'NONE',  ( 0.000000000000000000, 0.000000000000000000, 160.0000000000000284 ) ) ;
#165 = CARTESIAN_POINT ( 'NONE',  ( 0.000000000000000000, 0.000000000000000000, 160.0000000000000284 ) ) ;
#166 = DIRECTION ( 'NONE',  ( -0.000000000000000000, -0.000000000000000000, -1.000000000000000000 ) ) ;
#167 = DESIGN_CONTEXT ( 'detailed design', #107, 'design' ) ;
#168 = EDGE_CURVE ( 'NONE', #77, #242, #128, .T. ) ;
#169 = APPROVAL_STATUS ( 'not_yet_approved' ) ;
#170 = LOCAL_TIME ( 10, 54, 48.00000000000000000, #72 ) ;
#171 = DIRECTION ( 'NONE',  ( 1.000000000000000000, 0.000000000000000000, -0.000000000000000000 ) ) ;
#172 = EDGE_CURVE ( 'NONE', #38, #215, #104, .T. ) ;
#173 = VERTEX_POINT ( 'NONE', #22 ) ;
#174 = DIRECTION ( 'NONE',  ( -1.000000000000000000, 0.000000000000000000, 0.000000000000000000 ) ) ;
#175 = PERSON_AND_ORGANIZATION ( #47, #80 ) ;
#176 = CC_DESIGN_PERSON_AND_ORGANIZATION_ASSIGNMENT ( #62, #123, ( #44 ) ) ;
#177 = PRODUCT ( 'f8e3', 'f8e3', '', ( #141 ) ) ;
#178 = ORIENTED_EDGE ( 'NONE', *, *, #24, .T. ) ;
#179 = VERTEX_POINT ( 'NONE', #20 ) ;
#180 = CIRCLE ( 'NONE', #6, 0.4000000000000000222 ) ;
#181 = ORIENTED_EDGE ( 'NONE', *, *, #205, .F. ) ;
#182 = PERSON_AND_ORGANIZATION ( #47, #80 ) ;
#183 = CARTESIAN_POINT ( 'NONE',  ( 0.000000000000000000, 0.000000000000000000, 160.0000000000000284 ) ) ;
#184 = DIRECTION ( 'NONE',  ( -1.000000000000000000, 0.000000000000000000, 0.000000000000000000 ) ) ;
#185 = AXIS2_PLACEMENT_3D ( 'NONE', #164, #203, #149 ) ;
#186 = CARTESIAN_POINT ( 'NONE',  ( -1.250000000000000000, 0.000000000000000000, 1.199999999999999956 ) ) ;
#187 = CIRCLE ( 'NONE', #89, 1.250000000000000000 ) ;
#188 = CC_DESIGN_PERSON_AND_ORGANIZATION_ASSIGNMENT ( #182, #106, ( #44 ) ) ;
#189 = DIRECTION ( 'NONE',  ( 0.000000000000000000, 0.000000000000000000, 1.000000000000000000 ) ) ;
#190 = DIRECTION ( 'NONE',  ( 1.000000000000000000, 0.000000000000000000, 0.000000000000000000 ) ) ;
#191 = APPROVAL_PERSON_ORGANIZATION ( #247, #10, #19 ) ;
#192 = CALENDAR_DATE ( 2023, 10, 10 ) ;
#193 = AXIS2_PLACEMENT_3D ( 'NONE', #66, #189, #51 ) ;
#194 = APPROVAL_ROLE ( '' ) ;
#195 = FACE_OUTER_BOUND ( 'NONE', #17, .T. ) ;
#196 = ORIENTED_EDGE ( 'NONE', *, *, #124, .F. ) ;
#197 = APPROVAL_DATE_TIME ( #212, #109 ) ;
#198 = ORIENTED_EDGE ( 'NONE', *, *, #36, .F. ) ;
#199 = ORIENTED_EDGE ( 'NONE', *, *, #168, .F. ) ;
#200 = ORIENTED_EDGE ( 'NONE', *, *, #124, .T. ) ;
#201 = DIRECTION ( 'NONE',  ( 1.000000000000000000, 0.000000000000000000, 0.000000000000000000 ) ) ;
#202 = APPROVAL_DATE_TIME ( #71, #223 ) ;
#203 = DIRECTION ( 'NONE',  ( 0.000000000000000000, 0.000000000000000000, 1.000000000000000000 ) ) ;
#204 = DIRECTION ( 'NONE',  ( 0.000000000000000000, 0.000000000000000000, 1.000000000000000000 ) ) ;
#205 = EDGE_CURVE ( 'NONE', #38, #173, #233, .T. ) ;
#206 = CIRCLE ( 'NONE', #91, 0.4000000000000000222 ) ;
#207 = CYLINDRICAL_SURFACE ( 'NONE', #136, 0.4000000000000000222 ) ;
#208 = LOCAL_TIME ( 10, 54, 48.00000000000000000, #57 ) ;
#209 = CARTESIAN_POINT ( 'NONE',  ( 0.000000000000000000, 0.000000000000000000, 1.199999999999999956 ) ) ;
#210 = CLOSED_SHELL ( 'NONE', ( #54, #231, #82, #234, #129, #2, #16 ) ) ;
#211 = APPROVAL_ROLE ( '' ) ;
#212 = DATE_AND_TIME ( #224, #208 ) ;
#213 = PERSON_AND_ORGANIZATION ( #47, #80 ) ;
#214 = FACE_OUTER_BOUND ( 'NONE', #118, .T. ) ;
#215 = VERTEX_POINT ( 'NONE', #105 ) ;
#216 = VECTOR ( 'NONE', #125, 1000.000000000000000 ) ;
#217 = CARTESIAN_POINT ( 'NONE',  ( 0.000000000000000000, 0.000000000000000000, 1.199999999999999956 ) ) ;
#218 = CARTESIAN_POINT ( 'NONE',  ( 1.250000000000000000, 1.530808498934191571E-16, 1.199999999999999956 ) ) ;
#219 = EDGE_CURVE ( 'NONE', #94, #77, #70, .T. ) ;
#220 = CARTESIAN_POINT ( 'NONE',  ( -0.4000000000000000222, 0.000000000000000000, 160.0000000000000284 ) ) ;
#221 = FACE_OUTER_BOUND ( 'NONE', #248, .T. ) ;
#222 = DATE_AND_TIME ( #30, #170 ) ;
#223 = APPROVAL ( #169, 'NEURÈENÝ' ) ;
#224 = CALENDAR_DATE ( 2023, 10, 10 ) ;
#225 = AXIS2_PLACEMENT_3D ( 'NONE', #183, #251, #140 ) ;
#226 = CARTESIAN_POINT ( 'NONE',  ( 0.000000000000000000, 0.000000000000000000, 1.199999999999999956 ) ) ;
#227 = AXIS2_PLACEMENT_3D ( 'NONE', #117, #228, #174 ) ;
#228 = DIRECTION ( 'NONE',  ( -0.000000000000000000, -0.000000000000000000, -1.000000000000000000 ) ) ;
#229 = ORIENTED_EDGE ( 'NONE', *, *, #172, .T. ) ;
#230 = AXIS2_PLACEMENT_3D ( 'NONE', #244, #35, #7 ) ;
#231 = ADVANCED_FACE ( 'NONE', ( #195 ), #240, .T. ) ;
#232 = APPROVAL_DATE_TIME ( #83, #10 ) ;
#233 = LINE ( 'NONE', #110, #56 ) ;
#234 = ADVANCED_FACE ( 'NONE', ( #5, #214 ), #93, .T. ) ;
#235 = DIRECTION ( 'NONE',  ( 1.000000000000000000, 0.000000000000000000, 0.000000000000000000 ) ) ;
#236 = DIRECTION ( 'NONE',  ( 0.000000000000000000, 0.000000000000000000, 1.000000000000000000 ) ) ;
#237 = CARTESIAN_POINT ( 'NONE',  ( 0.000000000000000000, 0.000000000000000000, 0.000000000000000000 ) ) ;
#238 = DIRECTION ( 'NONE',  ( 1.000000000000000000, 0.000000000000000000, 0.000000000000000000 ) ) ;
#239 = AXIS2_PLACEMENT_3D ( 'NONE', #217, #253, #45 ) ;
#240 = CYLINDRICAL_SURFACE ( 'NONE', #227, 1.250000000000000000 ) ;
#241 =( LENGTH_UNIT ( ) NAMED_UNIT ( * ) SI_UNIT ( .MILLI., .METRE. ) );
#242 = VERTEX_POINT ( 'NONE', #116 ) ;
#243 = EDGE_CURVE ( 'NONE', #94, #142, #155, .T. ) ;
#244 = CARTESIAN_POINT ( 'NONE',  ( 0.000000000000000000, 0.000000000000000000, 0.000000000000000000 ) ) ;
#245 = PERSON_AND_ORGANIZATION ( #47, #80 ) ;
#246 = EDGE_LOOP ( 'NONE', ( #13, #103, #60, #200 ) ) ;
#247 = PERSON_AND_ORGANIZATION ( #47, #80 ) ;
#248 = EDGE_LOOP ( 'NONE', ( #73, #159 ) ) ;
#249 = EDGE_LOOP ( 'NONE', ( #81, #18, #99, #199 ) ) ;
#250 = CALENDAR_DATE ( 2023, 10, 10 ) ;
#251 = DIRECTION ( 'NONE',  ( 0.000000000000000000, 0.000000000000000000, 1.000000000000000000 ) ) ;
#252 = PERSON_AND_ORGANIZATION ( #47, #80 ) ;
#253 = DIRECTION ( 'NONE',  ( 0.000000000000000000, 0.000000000000000000, 1.000000000000000000 ) ) ;
#254 = AXIS2_PLACEMENT_3D ( 'NONE', #108, #166, #25 ) ;
#255 = DIRECTION ( 'NONE',  ( -0.000000000000000000, -0.000000000000000000, -1.000000000000000000 ) ) ;
ENDSEC;
END-ISO-10303-21;
