ISO-10303-21;
HEADER;
FILE_DESCRIPTION (( 'STEP AP203' ),
    '1' );
FILE_NAME ('9579.STEP',
    '2022-07-07T10:19:53',
    ( '' ),
    ( '' ),
    'SwSTEP 2.0',
    'SolidWorks 2019',
    '' );
FILE_SCHEMA (( 'CONFIG_CONTROL_DESIGN' ));
ENDSEC;

DATA;
#1 = COORDINATED_UNIVERSAL_TIME_OFFSET ( 1, 0, .AHEAD. ) ;
#2 = DIRECTION ( 'NONE',  ( 1.000000000000000000, 0.000000000000000000, 0.000000000000000000 ) ) ;
#3 = EDGE_CURVE ( 'NONE', #229, #5, #226, .T. ) ;
#4 = DESIGN_CONTEXT ( 'detailed design', #223, 'design' ) ;
#5 = VERTEX_POINT ( 'NONE', #96 ) ;
#6 = FACE_OUTER_BOUND ( 'NONE', #125, .T. ) ;
#7 = EDGE_LOOP ( 'NONE', ( #15, #106, #298, #72 ) ) ;
#8 = CARTESIAN_POINT ( 'NONE',  ( 0.000000000000000000, 0.000000000000000000, 3.000000000000000000 ) ) ;
#9 = CIRCLE ( 'NONE', #231, 2.500000000000000000 ) ;
#10 = VERTEX_POINT ( 'NONE', #124 ) ;
#11 = DATE_TIME_ROLE ( 'classification_date' ) ;
#12 = CIRCLE ( 'NONE', #43, 5.000000000000000000 ) ;
#13 = AXIS2_PLACEMENT_3D ( 'NONE', #8, #120, #26 ) ;
#14 = ORIENTED_EDGE ( 'NONE', *, *, #284, .T. ) ;
#15 = ORIENTED_EDGE ( 'NONE', *, *, #103, .F. ) ;
#16 = ADVANCED_FACE ( 'NONE', ( #246 ), #204, .F. ) ;
#17 = FACE_OUTER_BOUND ( 'NONE', #190, .T. ) ;
#18 = AXIS2_PLACEMENT_3D ( 'NONE', #90, #254, #47 ) ;
#19 = APPROVAL_PERSON_ORGANIZATION ( #193, #175, #290 ) ;
#20 = CARTESIAN_POINT ( 'NONE',  ( 0.000000000000000000, 0.000000000000000000, 253.0000000000000000 ) ) ;
#21 = CARTESIAN_POINT ( 'NONE',  ( 0.000000000000000000, 0.000000000000000000, 3.000000000000000000 ) ) ;
#22 = DIRECTION ( 'NONE',  ( -0.000000000000000000, -0.000000000000000000, -1.000000000000000000 ) ) ;
#23 = AXIS2_PLACEMENT_3D ( 'NONE', #208, #89, #235 ) ;
#24 = ORGANIZATION ( 'NEURÈENÝ', 'NEURÈENÝ', '' ) ;
#25 = MECHANICAL_CONTEXT ( 'NONE', #277, 'mechanical' ) ;
#26 = DIRECTION ( 'NONE',  ( -1.000000000000000000, 0.000000000000000000, 0.000000000000000000 ) ) ;
#27 = DIRECTION ( 'NONE',  ( 0.000000000000000000, 0.000000000000000000, 1.000000000000000000 ) ) ;
#28 = ORIENTED_EDGE ( 'NONE', *, *, #179, .T. ) ;
#29 = PERSON_AND_ORGANIZATION ( #45, #24 ) ;
#30 = LOCAL_TIME ( 12, 19, 53.00000000000000000, #212 ) ;
#31 = VERTEX_POINT ( 'NONE', #32 ) ;
#32 = CARTESIAN_POINT ( 'NONE',  ( -5.000000000000000000, 0.000000000000000000, 3.000000000000000000 ) ) ;
#33 = APPROVAL ( #127, 'NEURÈENÝ' ) ;
#34 = ORIENTED_EDGE ( 'NONE', *, *, #3, .F. ) ;
#35 = AXIS2_PLACEMENT_3D ( 'NONE', #49, #73, #189 ) ;
#36 = ORIENTED_EDGE ( 'NONE', *, *, #306, .T. ) ;
#37 = APPROVAL_ROLE ( '' ) ;
#38 = ORIENTED_EDGE ( 'NONE', *, *, #126, .T. ) ;
#39 = ADVANCED_FACE ( 'NONE', ( #222 ), #161, .T. ) ;
#40 = EDGE_CURVE ( 'NONE', #230, #150, #69, .T. ) ;
#41 = CARTESIAN_POINT ( 'NONE',  ( -2.700000000000000178, 3.306546357697853733E-16, 3.200000000000008171 ) ) ;
#42 = CARTESIAN_POINT ( 'NONE',  ( 5.000000000000000000, 6.123233995736766282E-16, 3.000000000000000000 ) ) ;
#43 = AXIS2_PLACEMENT_3D ( 'NONE', #21, #114, #304 ) ;
#44 = SECURITY_CLASSIFICATION ( '', '', #294 ) ;
#45 = PERSON ( 'NEURÈENÝ', 'NEURÈENÝ', 'NEURÈENÝ', ('NEURÈENÝ'), ('NEURÈENÝ'), ('NEURÈENÝ') ) ;
#46 = DIRECTION ( 'NONE',  ( 1.000000000000000000, 0.000000000000000000, 0.000000000000000000 ) ) ;
#47 = DIRECTION ( 'NONE',  ( 1.000000000000000000, 0.000000000000000000, -0.000000000000000000 ) ) ;
#48 = AXIS2_PLACEMENT_3D ( 'NONE', #20, #176, #113 ) ;
#49 = CARTESIAN_POINT ( 'NONE',  ( 0.000000000000000000, 0.000000000000000000, 3.000000000000000000 ) ) ;
#50 = DIRECTION ( 'NONE',  ( -0.000000000000000000, -0.000000000000000000, -1.000000000000000000 ) ) ;
#51 = DIRECTION ( 'NONE',  ( 0.000000000000000000, 0.000000000000000000, 1.000000000000000000 ) ) ;
#52 = DIRECTION ( 'NONE',  ( -1.000000000000000000, 0.000000000000000000, 0.000000000000000000 ) ) ;
#53 = FACE_OUTER_BOUND ( 'NONE', #76, .T. ) ;
#54 = ADVANCED_FACE ( 'NONE', ( #162 ), #220, .T. ) ;
#55 = ORIENTED_EDGE ( 'NONE', *, *, #145, .T. ) ;
#56 = PERSON_AND_ORGANIZATION ( #45, #24 ) ;
#57 = EDGE_LOOP ( 'NONE', ( #102, #151 ) ) ;
#58 = PERSON_AND_ORGANIZATION ( #45, #24 ) ;
#59 = CC_DESIGN_APPROVAL ( #33, ( #44 ) ) ;
#60 = EDGE_LOOP ( 'NONE', ( #289, #194, #36, #34 ) ) ;
#61 = VERTEX_POINT ( 'NONE', #245 ) ;
#62 = CIRCLE ( 'NONE', #183, 2.500000000000000000 ) ;
#63 = APPROVAL ( #248, 'NEURÈENÝ' ) ;
#64 = VECTOR ( 'NONE', #275, 1000.000000000000000 ) ;
#65 = CARTESIAN_POINT ( 'NONE',  ( 2.500000000000000000, 3.061616997868383141E-16, 253.0000000000000000 ) ) ;
#66 = DIRECTION ( 'NONE',  ( 0.000000000000000000, 0.000000000000000000, 1.000000000000000000 ) ) ;
#67 = CARTESIAN_POINT ( 'NONE',  ( -5.000000000000000000, 0.000000000000000000, 3.000000000000000000 ) ) ;
#68 = DIRECTION ( 'NONE',  ( -0.000000000000000000, -0.000000000000000000, -1.000000000000000000 ) ) ;
#69 = CIRCLE ( 'NONE', #170, 0.2000000000000000944 ) ;
#70 = DATE_TIME_ROLE ( 'creation_date' ) ;
#71 = PRODUCT_RELATED_PRODUCT_CATEGORY ( 'detail', '', ( #271 ) ) ;
#72 = ORIENTED_EDGE ( 'NONE', *, *, #40, .F. ) ;
#73 = DIRECTION ( 'NONE',  ( -0.000000000000000000, -0.000000000000000000, -1.000000000000000000 ) ) ;
#74 = CARTESIAN_POINT ( 'NONE',  ( 0.000000000000000000, 0.000000000000000000, 253.0000000000000000 ) ) ;
#75 = VECTOR ( 'NONE', #68, 1000.000000000000000 ) ;
#76 = EDGE_LOOP ( 'NONE', ( #291, #104, #295, #55 ) ) ;
#77 = CALENDAR_DATE ( 2022, 7, 7 ) ;
#78 =( GEOMETRIC_REPRESENTATION_CONTEXT ( 3 ) GLOBAL_UNCERTAINTY_ASSIGNED_CONTEXT ( ( #213 ) ) GLOBAL_UNIT_ASSIGNED_CONTEXT ( ( #140, #97, #118 ) ) REPRESENTATION_CONTEXT ( 'NONE', 'WORKASPACE' ) );
#79 = EDGE_LOOP ( 'NONE', ( #132, #146, #199, #99 ) ) ;
#80 = PERSON_AND_ORGANIZATION_ROLE ( 'design_supplier' ) ;
#81 = CARTESIAN_POINT ( 'NONE',  ( -2.500000000000000000, 0.000000000000000000, 253.0000000000000000 ) ) ;
#82 = COORDINATED_UNIVERSAL_TIME_OFFSET ( 1, 0, .AHEAD. ) ;
#83 = CALENDAR_DATE ( 2022, 7, 7 ) ;
#84 = EDGE_CURVE ( 'NONE', #31, #128, #279, .T. ) ;
#85 = PRODUCT_DEFINITION ( 'NEZNÁMÝ', '', #227, #4 ) ;
#86 = AXIS2_PLACEMENT_3D ( 'NONE', #163, #165, #160 ) ;
#87 = LINE ( 'NONE', #65, #64 ) ;
#88 = CARTESIAN_POINT ( 'NONE',  ( 0.000000000000000000, 0.000000000000000000, 3.000000000000000000 ) ) ;
#89 = DIRECTION ( 'NONE',  ( -0.000000000000000000, -0.000000000000000000, -1.000000000000000000 ) ) ;
#90 = CARTESIAN_POINT ( 'NONE',  ( 0.000000000000000000, 0.000000000000000000, 3.000000000000000000 ) ) ;
#91 = AXIS2_PLACEMENT_3D ( 'NONE', #137, #66, #158 ) ;
#92 = LINE ( 'NONE', #181, #250 ) ;
#93 = PRODUCT_DEFINITION_SHAPE ( 'NONE', 'NONE',  #85 ) ;
#94 = CALENDAR_DATE ( 2022, 7, 7 ) ;
#95 = CARTESIAN_POINT ( 'NONE',  ( 0.000000000000000000, 0.000000000000000000, 3.000000000000000000 ) ) ;
#96 = CARTESIAN_POINT ( 'NONE',  ( -2.500000000000000000, 0.000000000000000000, 3.200000000000008171 ) ) ;
#97 =( NAMED_UNIT ( * ) PLANE_ANGLE_UNIT ( ) SI_UNIT ( $, .RADIAN. ) );
#98 = ADVANCED_FACE ( 'NONE', ( #17 ), #211, .T. ) ;
#99 = ORIENTED_EDGE ( 'NONE', *, *, #126, .F. ) ;
#100 = DIRECTION ( 'NONE',  ( 0.000000000000000000, 0.000000000000000000, 1.000000000000000000 ) ) ;
#101 = AXIS2_PLACEMENT_3D ( 'NONE', #156, #206, #252 ) ;
#102 = ORIENTED_EDGE ( 'NONE', *, *, #145, .F. ) ;
#103 = EDGE_CURVE ( 'NONE', #5, #230, #62, .T. ) ;
#104 = ORIENTED_EDGE ( 'NONE', *, *, #284, .F. ) ;
#105 = APPROVAL_DATE_TIME ( #297, #63 ) ;
#106 = ORIENTED_EDGE ( 'NONE', *, *, #109, .T. ) ;
#107 = ORIENTED_EDGE ( 'NONE', *, *, #203, .F. ) ;
#108 = EDGE_LOOP ( 'NONE', ( #195, #38 ) ) ;
#109 = EDGE_CURVE ( 'NONE', #5, #122, #236, .T. ) ;
#110 = CIRCLE ( 'NONE', #184, 5.000000000000000000 ) ;
#111 = DIRECTION ( 'NONE',  ( 0.000000000000000000, 0.000000000000000000, 1.000000000000000000 ) ) ;
#112 = APPROVAL_PERSON_ORGANIZATION ( #147, #33, #272 ) ;
#113 = DIRECTION ( 'NONE',  ( 1.000000000000000000, 0.000000000000000000, 0.000000000000000000 ) ) ;
#114 = DIRECTION ( 'NONE',  ( 0.000000000000000000, 0.000000000000000000, 1.000000000000000000 ) ) ;
#115 = CARTESIAN_POINT ( 'NONE',  ( -2.500000000000000000, 0.000000000000000000, 253.0000000000000000 ) ) ;
#116 = CC_DESIGN_DATE_AND_TIME_ASSIGNMENT ( #228, #11, ( #44 ) ) ;
#117 = DATE_AND_TIME ( #77, #30 ) ;
#118 =( NAMED_UNIT ( * ) SI_UNIT ( $, .STERADIAN. ) SOLID_ANGLE_UNIT ( ) );
#119 = AXIS2_PLACEMENT_3D ( 'NONE', #144, #50, #142 ) ;
#120 = DIRECTION ( 'NONE',  ( -0.000000000000000000, -0.000000000000000000, -1.000000000000000000 ) ) ;
#121 = EDGE_CURVE ( 'NONE', #229, #61, #9, .T. ) ;
#122 = VERTEX_POINT ( 'NONE', #276 ) ;
#123 = APPROVAL_PERSON_ORGANIZATION ( #259, #63, #37 ) ;
#124 = CARTESIAN_POINT ( 'NONE',  ( 5.000000000000000000, 6.123233995736766282E-16, 0.000000000000000000 ) ) ;
#125 = EDGE_LOOP ( 'NONE', ( #293, #266, #167, #273 ) ) ;
#126 = EDGE_CURVE ( 'NONE', #122, #150, #215, .T. ) ;
#127 = APPROVAL_STATUS ( 'not_yet_approved' ) ;
#128 = VERTEX_POINT ( 'NONE', #305 ) ;
#129 = CC_DESIGN_PERSON_AND_ORGANIZATION_ASSIGNMENT ( #139, #237, ( #85 ) ) ;
#130 = COORDINATED_UNIVERSAL_TIME_OFFSET ( 1, 0, .AHEAD. ) ;
#131 = ORIENTED_EDGE ( 'NONE', *, *, #3, .T. ) ;
#132 = ORIENTED_EDGE ( 'NONE', *, *, #109, .F. ) ;
#133 = ORIENTED_EDGE ( 'NONE', *, *, #121, .T. ) ;
#134 = FACE_OUTER_BOUND ( 'NONE', #249, .T. ) ;
#135 = AXIS2_PLACEMENT_3D ( 'NONE', #281, #234, #233 ) ;
#136 = PLANE ( 'NONE',  #135 ) ;
#137 = CARTESIAN_POINT ( 'NONE',  ( 0.000000000000000000, 0.000000000000000000, 0.000000000000000000 ) ) ;
#138 = PLANE ( 'NONE',  #18 ) ;
#139 = PERSON_AND_ORGANIZATION ( #45, #24 ) ;
#140 =( LENGTH_UNIT ( ) NAMED_UNIT ( * ) SI_UNIT ( .MILLI., .METRE. ) );
#141 = CARTESIAN_POINT ( 'NONE',  ( 0.000000000000000000, 0.000000000000000000, 0.000000000000000000 ) ) ;
#142 = DIRECTION ( 'NONE',  ( -1.000000000000000000, 0.000000000000000000, 0.000000000000000000 ) ) ;
#143 = CYLINDRICAL_SURFACE ( 'NONE', #13, 5.000000000000000000 ) ;
#144 = CARTESIAN_POINT ( 'NONE',  ( 0.000000000000000000, 0.000000000000000000, 253.0000000000000000 ) ) ;
#145 = EDGE_CURVE ( 'NONE', #128, #10, #159, .T. ) ;
#146 = ORIENTED_EDGE ( 'NONE', *, *, #306, .F. ) ;
#147 = PERSON_AND_ORGANIZATION ( #45, #24 ) ;
#148 = AXIS2_PLACEMENT_3D ( 'NONE', #285, #100, #186 ) ;
#149 = PERSON_AND_ORGANIZATION ( #45, #24 ) ;
#150 = VERTEX_POINT ( 'NONE', #180 ) ;
#151 = ORIENTED_EDGE ( 'NONE', *, *, #253, .F. ) ;
#152 = DIRECTION ( 'NONE',  ( -0.000000000000000000, -0.000000000000000000, -1.000000000000000000 ) ) ;
#153 = ADVANCED_FACE ( 'NONE', ( #256, #134 ), #138, .T. ) ;
#154 = DIRECTION ( 'NONE',  ( 1.224646799147353207E-16, 1.000000000000000000, -0.000000000000000000 ) ) ;
#155 = AXIS2_PLACEMENT_3D ( 'NONE', #232, #262, #2 ) ;
#156 = CARTESIAN_POINT ( 'NONE',  ( 0.000000000000000000, 0.000000000000000000, 253.0000000000000000 ) ) ;
#157 = CIRCLE ( 'NONE', #205, 2.500000000000000000 ) ;
#158 = DIRECTION ( 'NONE',  ( 1.000000000000000000, 0.000000000000000000, 0.000000000000000000 ) ) ;
#159 = CIRCLE ( 'NONE', #91, 5.000000000000000000 ) ;
#160 = DIRECTION ( 'NONE',  ( 1.000000000000000000, 0.000000000000000000, 0.000000000000000000 ) ) ;
#161 = CYLINDRICAL_SURFACE ( 'NONE', #119, 2.500000000000000000 ) ;
#162 = FACE_OUTER_BOUND ( 'NONE', #172, .T. ) ;
#163 = CARTESIAN_POINT ( 'NONE',  ( 0.000000000000000000, 0.000000000000000000, 3.200000000000008171 ) ) ;
#164 = VERTEX_POINT ( 'NONE', #42 ) ;
#165 = DIRECTION ( 'NONE',  ( 0.000000000000000000, 0.000000000000000000, 1.000000000000000000 ) ) ;
#166 = CC_DESIGN_PERSON_AND_ORGANIZATION_ASSIGNMENT ( #56, #80, ( #227 ) ) ;
#167 = ORIENTED_EDGE ( 'NONE', *, *, #253, .T. ) ;
#168 = CALENDAR_DATE ( 2022, 7, 7 ) ;
#169 = DATE_AND_TIME ( #168, #265 ) ;
#170 = AXIS2_PLACEMENT_3D ( 'NONE', #241, #188, #287 ) ;
#171 = ADVANCED_FACE ( 'NONE', ( #278 ), #136, .F. ) ;
#172 = EDGE_LOOP ( 'NONE', ( #107, #268, #131, #202 ) ) ;
#173 = CIRCLE ( 'NONE', #48, 2.500000000000000000 ) ;
#174 = LOCAL_TIME ( 12, 19, 53.00000000000000000, #1 ) ;
#175 = APPROVAL ( #221, 'NEURÈENÝ' ) ;
#176 = DIRECTION ( 'NONE',  ( 0.000000000000000000, 0.000000000000000000, 1.000000000000000000 ) ) ;
#177 = CARTESIAN_POINT ( 'NONE',  ( 0.000000000000000000, 0.000000000000000000, 3.200000000000008171 ) ) ;
#178 = CARTESIAN_POINT ( 'NONE',  ( 0.000000000000000000, 0.000000000000000000, 253.0000000000000000 ) ) ;
#179 = EDGE_CURVE ( 'NONE', #164, #31, #12, .T. ) ;
#180 = CARTESIAN_POINT ( 'NONE',  ( 2.700000000000000178, 0.000000000000000000, 3.000000000000004441 ) ) ;
#181 = CARTESIAN_POINT ( 'NONE',  ( 5.000000000000000000, 6.123233995736766282E-16, 3.000000000000000000 ) ) ;
#182 = DIRECTION ( 'NONE',  ( 1.000000000000000000, 0.000000000000000000, 0.000000000000000000 ) ) ;
#183 = AXIS2_PLACEMENT_3D ( 'NONE', #177, #111, #255 ) ;
#184 = AXIS2_PLACEMENT_3D ( 'NONE', #95, #51, #187 ) ;
#185 = CC_DESIGN_SECURITY_CLASSIFICATION ( #44, ( #227 ) ) ;
#186 = DIRECTION ( 'NONE',  ( 1.000000000000000000, 0.000000000000000000, 0.000000000000000000 ) ) ;
#187 = DIRECTION ( 'NONE',  ( 1.000000000000000000, 0.000000000000000000, 0.000000000000000000 ) ) ;
#188 = DIRECTION ( 'NONE',  ( 0.000000000000000000, -1.000000000000000000, 0.000000000000000000 ) ) ;
#189 = DIRECTION ( 'NONE',  ( -1.000000000000000000, 0.000000000000000000, 0.000000000000000000 ) ) ;
#190 = EDGE_LOOP ( 'NONE', ( #133, #218 ) ) ;
#191 = EDGE_CURVE ( 'NONE', #61, #229, #173, .T. ) ;
#192 = AXIS2_PLACEMENT_3D ( 'NONE', #74, #263, #52 ) ;
#193 = PERSON_AND_ORGANIZATION ( #45, #24 ) ;
#194 = ORIENTED_EDGE ( 'NONE', *, *, #203, .T. ) ;
#195 = ORIENTED_EDGE ( 'NONE', *, *, #197, .T. ) ;
#196 = COORDINATED_UNIVERSAL_TIME_OFFSET ( 1, 0, .AHEAD. ) ;
#197 = EDGE_CURVE ( 'NONE', #150, #122, #264, .T. ) ;
#198 = CALENDAR_DATE ( 2022, 7, 7 ) ;
#199 = ORIENTED_EDGE ( 'NONE', *, *, #40, .T. ) ;
#200 = PERSON_AND_ORGANIZATION_ROLE ( 'creator' ) ;
#201 = CC_DESIGN_APPROVAL ( #63, ( #227 ) ) ;
#202 = ORIENTED_EDGE ( 'NONE', *, *, #103, .T. ) ;
#203 = EDGE_CURVE ( 'NONE', #61, #230, #87, .T. ) ;
#204 = TOROIDAL_SURFACE ( 'NONE', #148, 2.700000000000000178, 0.2000000000000000111 ) ;
#205 = AXIS2_PLACEMENT_3D ( 'NONE', #286, #239, #182 ) ;
#206 = DIRECTION ( 'NONE',  ( 0.000000000000000000, 0.000000000000000000, 1.000000000000000000 ) ) ;
#207 = DIRECTION ( 'NONE',  ( 0.000000000000000000, 0.000000000000000000, 1.000000000000000000 ) ) ;
#208 = CARTESIAN_POINT ( 'NONE',  ( 0.000000000000000000, 0.000000000000000000, 3.000000000000000000 ) ) ;
#209 = VECTOR ( 'NONE', #261, 1000.000000000000000 ) ;
#210 = ADVANCED_BREP_SHAPE_REPRESENTATION ( '9579', ( #247, #243 ), #78 ) ;
#211 = PLANE ( 'NONE',  #101 ) ;
#212 = COORDINATED_UNIVERSAL_TIME_OFFSET ( 1, 0, .AHEAD. ) ;
#213 = UNCERTAINTY_MEASURE_WITH_UNIT (LENGTH_MEASURE( 1.000000000000000082E-05 ), #140, 'distance_accuracy_value', 'NONE');
#214 = CC_DESIGN_DATE_AND_TIME_ASSIGNMENT ( #282, #70, ( #85 ) ) ;
#215 = CIRCLE ( 'NONE', #216, 2.700000000000000178 ) ;
#216 = AXIS2_PLACEMENT_3D ( 'NONE', #88, #22, #46 ) ;
#217 = CYLINDRICAL_SURFACE ( 'NONE', #35, 5.000000000000000000 ) ;
#218 = ORIENTED_EDGE ( 'NONE', *, *, #191, .T. ) ;
#219 = PERSON_AND_ORGANIZATION_ROLE ( 'design_owner' ) ;
#220 = CYLINDRICAL_SURFACE ( 'NONE', #192, 2.500000000000000000 ) ;
#221 = APPROVAL_STATUS ( 'not_yet_approved' ) ;
#222 = FACE_OUTER_BOUND ( 'NONE', #60, .T. ) ;
#223 = APPLICATION_CONTEXT ( 'configuration controlled 3d designs of mechanical parts and assemblies' ) ;
#224 = PERSON_AND_ORGANIZATION_ROLE ( 'classification_officer' ) ;
#225 = TOROIDAL_SURFACE ( 'NONE', #86, 2.700000000000000178, 0.2000000000000000111 ) ;
#226 = LINE ( 'NONE', #81, #209 ) ;
#227 = PRODUCT_DEFINITION_FORMATION_WITH_SPECIFIED_SOURCE ( 'LIBOVOLNÝ', '', #271, .NOT_KNOWN. ) ;
#228 = DATE_AND_TIME ( #83, #244 ) ;
#229 = VERTEX_POINT ( 'NONE', #115 ) ;
#230 = VERTEX_POINT ( 'NONE', #307 ) ;
#231 = AXIS2_PLACEMENT_3D ( 'NONE', #178, #207, #300 ) ;
#232 = CARTESIAN_POINT ( 'NONE',  ( 0.000000000000000000, 0.000000000000000000, 0.000000000000000000 ) ) ;
#233 = DIRECTION ( 'NONE',  ( 1.000000000000000000, 0.000000000000000000, -0.000000000000000000 ) ) ;
#234 = DIRECTION ( 'NONE',  ( 0.000000000000000000, 0.000000000000000000, 1.000000000000000000 ) ) ;
#235 = DIRECTION ( 'NONE',  ( 1.000000000000000000, 0.000000000000000000, 0.000000000000000000 ) ) ;
#236 = CIRCLE ( 'NONE', #274, 0.2000000000000000944 ) ;
#237 = PERSON_AND_ORGANIZATION_ROLE ( 'creator' ) ;
#238 = EDGE_CURVE ( 'NONE', #164, #10, #92, .T. ) ;
#239 = DIRECTION ( 'NONE',  ( 0.000000000000000000, 0.000000000000000000, 1.000000000000000000 ) ) ;
#240 = FACE_OUTER_BOUND ( 'NONE', #79, .T. ) ;
#241 = CARTESIAN_POINT ( 'NONE',  ( 2.700000000000000178, 0.000000000000000000, 3.200000000000008171 ) ) ;
#242 = DIRECTION ( 'NONE',  ( 1.000000000000000000, 0.000000000000000000, 0.000000000000000000 ) ) ;
#243 = AXIS2_PLACEMENT_3D ( 'NONE', #141, #27, #242 ) ;
#244 = LOCAL_TIME ( 12, 19, 53.00000000000000000, #130 ) ;
#245 = CARTESIAN_POINT ( 'NONE',  ( 2.500000000000000000, 3.061616997868383141E-16, 253.0000000000000000 ) ) ;
#246 = FACE_OUTER_BOUND ( 'NONE', #7, .T. ) ;
#247 = MANIFOLD_SOLID_BREP ( 'Zaoblit1', #258 ) ;
#248 = APPROVAL_STATUS ( 'not_yet_approved' ) ;
#249 = EDGE_LOOP ( 'NONE', ( #14, #28 ) ) ;
#250 = VECTOR ( 'NONE', #152, 1000.000000000000000 ) ;
#251 = APPROVAL_DATE_TIME ( #169, #33 ) ;
#252 = DIRECTION ( 'NONE',  ( 1.000000000000000000, 0.000000000000000000, -0.000000000000000000 ) ) ;
#253 = EDGE_CURVE ( 'NONE', #10, #128, #301, .T. ) ;
#254 = DIRECTION ( 'NONE',  ( 0.000000000000000000, 0.000000000000000000, 1.000000000000000000 ) ) ;
#255 = DIRECTION ( 'NONE',  ( 1.000000000000000000, 0.000000000000000000, 0.000000000000000000 ) ) ;
#256 = FACE_BOUND ( 'NONE', #108, .T. ) ;
#257 = CC_DESIGN_PERSON_AND_ORGANIZATION_ASSIGNMENT ( #29, #219, ( #271 ) ) ;
#258 = CLOSED_SHELL ( 'NONE', ( #16, #39, #299, #296, #153, #171, #54, #98, #269 ) ) ;
#259 = PERSON_AND_ORGANIZATION ( #45, #24 ) ;
#260 = APPLICATION_PROTOCOL_DEFINITION ( 'international standard', 'config_control_design', 1994, #223 ) ;
#261 = DIRECTION ( 'NONE',  ( -0.000000000000000000, -0.000000000000000000, -1.000000000000000000 ) ) ;
#262 = DIRECTION ( 'NONE',  ( 0.000000000000000000, 0.000000000000000000, 1.000000000000000000 ) ) ;
#263 = DIRECTION ( 'NONE',  ( -0.000000000000000000, -0.000000000000000000, -1.000000000000000000 ) ) ;
#264 = CIRCLE ( 'NONE', #23, 2.700000000000000178 ) ;
#265 = LOCAL_TIME ( 12, 19, 53.00000000000000000, #82 ) ;
#266 = ORIENTED_EDGE ( 'NONE', *, *, #238, .T. ) ;
#267 = APPROVAL_DATE_TIME ( #117, #175 ) ;
#268 = ORIENTED_EDGE ( 'NONE', *, *, #121, .F. ) ;
#269 = ADVANCED_FACE ( 'NONE', ( #240 ), #225, .F. ) ;
#270 = SHAPE_DEFINITION_REPRESENTATION ( #93, #210 ) ;
#271 = PRODUCT ( '9579', '9579', '', ( #25 ) ) ;
#272 = APPROVAL_ROLE ( '' ) ;
#273 = ORIENTED_EDGE ( 'NONE', *, *, #84, .F. ) ;
#274 = AXIS2_PLACEMENT_3D ( 'NONE', #41, #154, #303 ) ;
#275 = DIRECTION ( 'NONE',  ( -0.000000000000000000, -0.000000000000000000, -1.000000000000000000 ) ) ;
#276 = CARTESIAN_POINT ( 'NONE',  ( -2.700000000000000178, 3.306546357697853733E-16, 3.000000000000004441 ) ) ;
#277 = APPLICATION_CONTEXT ( 'configuration controlled 3d designs of mechanical parts and assemblies' ) ;
#278 = FACE_OUTER_BOUND ( 'NONE', #57, .T. ) ;
#279 = LINE ( 'NONE', #67, #75 ) ;
#280 = CC_DESIGN_PERSON_AND_ORGANIZATION_ASSIGNMENT ( #58, #200, ( #227 ) ) ;
#281 = CARTESIAN_POINT ( 'NONE',  ( 0.000000000000000000, 0.000000000000000000, 0.000000000000000000 ) ) ;
#282 = DATE_AND_TIME ( #94, #174 ) ;
#283 = LOCAL_TIME ( 12, 19, 53.00000000000000000, #196 ) ;
#284 = EDGE_CURVE ( 'NONE', #31, #164, #110, .T. ) ;
#285 = CARTESIAN_POINT ( 'NONE',  ( 0.000000000000000000, 0.000000000000000000, 3.200000000000008171 ) ) ;
#286 = CARTESIAN_POINT ( 'NONE',  ( 0.000000000000000000, 0.000000000000000000, 3.200000000000008171 ) ) ;
#287 = DIRECTION ( 'NONE',  ( 0.000000000000000000, 0.000000000000000000, -1.000000000000000000 ) ) ;
#288 = APPLICATION_PROTOCOL_DEFINITION ( 'international standard', 'config_control_design', 1994, #277 ) ;
#289 = ORIENTED_EDGE ( 'NONE', *, *, #191, .F. ) ;
#290 = APPROVAL_ROLE ( '' ) ;
#291 = ORIENTED_EDGE ( 'NONE', *, *, #238, .F. ) ;
#292 = CC_DESIGN_PERSON_AND_ORGANIZATION_ASSIGNMENT ( #149, #224, ( #44 ) ) ;
#293 = ORIENTED_EDGE ( 'NONE', *, *, #179, .F. ) ;
#294 = SECURITY_CLASSIFICATION_LEVEL ( 'unclassified' ) ;
#295 = ORIENTED_EDGE ( 'NONE', *, *, #84, .T. ) ;
#296 = ADVANCED_FACE ( 'NONE', ( #53 ), #143, .T. ) ;
#297 = DATE_AND_TIME ( #198, #283 ) ;
#298 = ORIENTED_EDGE ( 'NONE', *, *, #197, .F. ) ;
#299 = ADVANCED_FACE ( 'NONE', ( #6 ), #217, .T. ) ;
#300 = DIRECTION ( 'NONE',  ( 1.000000000000000000, 0.000000000000000000, 0.000000000000000000 ) ) ;
#301 = CIRCLE ( 'NONE', #155, 5.000000000000000000 ) ;
#302 = CC_DESIGN_APPROVAL ( #175, ( #85 ) ) ;
#303 = DIRECTION ( 'NONE',  ( -1.000000000000000000, 1.224646799147353207E-16, 0.000000000000000000 ) ) ;
#304 = DIRECTION ( 'NONE',  ( 1.000000000000000000, 0.000000000000000000, 0.000000000000000000 ) ) ;
#305 = CARTESIAN_POINT ( 'NONE',  ( -5.000000000000000000, 0.000000000000000000, 0.000000000000000000 ) ) ;
#306 = EDGE_CURVE ( 'NONE', #230, #5, #157, .T. ) ;
#307 = CARTESIAN_POINT ( 'NONE',  ( 2.500000000000000000, 3.061616997868383141E-16, 3.200000000000008171 ) ) ;
ENDSEC;
END-ISO-10303-21;
