ISO-10303-21;
HEADER;
FILE_DESCRIPTION (( 'STEP AP203' ),
    '1' );
FILE_NAME ('4730.STEP',
    '2022-07-07T10:35:51',
    ( '' ),
    ( '' ),
    'SwSTEP 2.0',
    'SolidWorks 2019',
    '' );
FILE_SCHEMA (( 'CONFIG_CONTROL_DESIGN' ));
ENDSEC;

DATA;
#1 = ORIENTED_EDGE ( 'NONE', *, *, #69, .T. ) ;
#2 = AXIS2_PLACEMENT_3D ( 'NONE', #89, #163, #260 ) ;
#3 = ORIENTED_EDGE ( 'NONE', *, *, #138, .F. ) ;
#4 = AXIS2_PLACEMENT_3D ( 'NONE', #245, #33, #126 ) ;
#5 = EDGE_LOOP ( 'NONE', ( #124, #287 ) ) ;
#6 = ADVANCED_FACE ( 'NONE', ( #227 ), #199, .T. ) ;
#7 = ORIENTED_EDGE ( 'NONE', *, *, #103, .T. ) ;
#8 = CIRCLE ( 'NONE', #49, 2.000000000000000000 ) ;
#9 = DIRECTION ( 'NONE',  ( 0.000000000000000000, 0.000000000000000000, 1.000000000000000000 ) ) ;
#10 = ADVANCED_FACE ( 'NONE', ( #16 ), #214, .F. ) ;
#11 = DIRECTION ( 'NONE',  ( -0.000000000000000000, -0.000000000000000000, -1.000000000000000000 ) ) ;
#12 = DIRECTION ( 'NONE',  ( 0.000000000000000000, 0.000000000000000000, 1.000000000000000000 ) ) ;
#13 = CC_DESIGN_APPROVAL ( #128, ( #246 ) ) ;
#14 = ORIENTED_EDGE ( 'NONE', *, *, #97, .F. ) ;
#15 = EDGE_CURVE ( 'NONE', #239, #241, #153, .T. ) ;
#16 = FACE_OUTER_BOUND ( 'NONE', #26, .T. ) ;
#17 = PLANE ( 'NONE',  #220 ) ;
#18 = DIRECTION ( 'NONE',  ( 0.000000000000000000, 0.000000000000000000, 1.000000000000000000 ) ) ;
#19 = APPLICATION_PROTOCOL_DEFINITION ( 'international standard', 'config_control_design', 1994, #139 ) ;
#20 = DIRECTION ( 'NONE',  ( -0.000000000000000000, -0.000000000000000000, -1.000000000000000000 ) ) ;
#21 = LINE ( 'NONE', #134, #130 ) ;
#22 = DATE_TIME_ROLE ( 'classification_date' ) ;
#23 = CARTESIAN_POINT ( 'NONE',  ( 0.000000000000000000, 0.000000000000000000, 2.200000000000007283 ) ) ;
#24 = PERSON_AND_ORGANIZATION ( #84, #51 ) ;
#25 = EDGE_CURVE ( 'NONE', #166, #48, #114, .T. ) ;
#26 = EDGE_LOOP ( 'NONE', ( #146, #108, #94, #3 ) ) ;
#27 = CALENDAR_DATE ( 2022, 7, 7 ) ;
#28 = ORIENTED_EDGE ( 'NONE', *, *, #15, .T. ) ;
#29 = CC_DESIGN_APPROVAL ( #264, ( #162 ) ) ;
#30 = ADVANCED_FACE ( 'NONE', ( #131 ), #82, .T. ) ;
#31 = VERTEX_POINT ( 'NONE', #150 ) ;
#32 = UNCERTAINTY_MEASURE_WITH_UNIT (LENGTH_MEASURE( 1.000000000000000082E-05 ), #188, 'distance_accuracy_value', 'NONE');
#33 = DIRECTION ( 'NONE',  ( -0.000000000000000000, -0.000000000000000000, -1.000000000000000000 ) ) ;
#34 = CARTESIAN_POINT ( 'NONE',  ( 0.000000000000000000, 0.000000000000000000, 2.000000000000000000 ) ) ;
#35 = DIRECTION ( 'NONE',  ( -0.000000000000000000, -0.000000000000000000, -1.000000000000000000 ) ) ;
#36 = CIRCLE ( 'NONE', #167, 1.000000000000000000 ) ;
#37 = ORIENTED_EDGE ( 'NONE', *, *, #266, .T. ) ;
#38 = FACE_OUTER_BOUND ( 'NONE', #107, .T. ) ;
#39 = CYLINDRICAL_SURFACE ( 'NONE', #257, 1.000000000000000000 ) ;
#40 = AXIS2_PLACEMENT_3D ( 'NONE', #186, #204, #299 ) ;
#41 = DIRECTION ( 'NONE',  ( 1.000000000000000000, 0.000000000000000000, -0.000000000000000000 ) ) ;
#42 = VECTOR ( 'NONE', #11, 1000.000000000000000 ) ;
#43 = CARTESIAN_POINT ( 'NONE',  ( -2.000000000000000000, 0.000000000000000000, 0.000000000000000000 ) ) ;
#44 = DATE_AND_TIME ( #122, #72 ) ;
#45 = APPROVAL_ROLE ( '' ) ;
#46 = VECTOR ( 'NONE', #20, 1000.000000000000000 ) ;
#47 = APPROVAL_STATUS ( 'not_yet_approved' ) ;
#48 = VERTEX_POINT ( 'NONE', #293 ) ;
#49 = AXIS2_PLACEMENT_3D ( 'NONE', #283, #178, #165 ) ;
#50 = DIRECTION ( 'NONE',  ( 0.000000000000000000, 0.000000000000000000, 1.000000000000000000 ) ) ;
#51 = ORGANIZATION ( 'NEURÈENÝ', 'NEURÈENÝ', '' ) ;
#52 = CARTESIAN_POINT ( 'NONE',  ( 1.200000000000000178, 0.000000000000000000, 2.000000000000003553 ) ) ;
#53 = CIRCLE ( 'NONE', #4, 1.200000000000000178 ) ;
#54 = ORIENTED_EDGE ( 'NONE', *, *, #170, .F. ) ;
#55 = CC_DESIGN_PERSON_AND_ORGANIZATION_ASSIGNMENT ( #215, #307, ( #189 ) ) ;
#56 = ORIENTED_EDGE ( 'NONE', *, *, #97, .T. ) ;
#57 = VERTEX_POINT ( 'NONE', #295 ) ;
#58 = DIRECTION ( 'NONE',  ( 1.000000000000000000, 0.000000000000000000, 0.000000000000000000 ) ) ;
#59 = CARTESIAN_POINT ( 'NONE',  ( 0.000000000000000000, 0.000000000000000000, 202.0000000000000000 ) ) ;
#60 = SHAPE_DEFINITION_REPRESENTATION ( #95, #140 ) ;
#61 = EDGE_CURVE ( 'NONE', #57, #105, #53, .T. ) ;
#62 = CARTESIAN_POINT ( 'NONE',  ( 0.000000000000000000, 0.000000000000000000, 2.000000000000000000 ) ) ;
#63 = LOCAL_TIME ( 12, 35, 51.00000000000000000, #147 ) ;
#64 = PERSON_AND_ORGANIZATION ( #84, #51 ) ;
#65 = CARTESIAN_POINT ( 'NONE',  ( -2.000000000000000000, 0.000000000000000000, 2.000000000000000000 ) ) ;
#66 = AXIS2_PLACEMENT_3D ( 'NONE', #270, #50, #176 ) ;
#67 = DATE_AND_TIME ( #70, #184 ) ;
#68 = DIRECTION ( 'NONE',  ( 1.000000000000000000, 0.000000000000000000, -0.000000000000000000 ) ) ;
#69 = EDGE_CURVE ( 'NONE', #166, #197, #222, .T. ) ;
#70 = CALENDAR_DATE ( 2022, 7, 7 ) ;
#71 = PERSON_AND_ORGANIZATION ( #84, #51 ) ;
#72 = LOCAL_TIME ( 12, 35, 51.00000000000000000, #181 ) ;
#73 = PRODUCT_RELATED_PRODUCT_CATEGORY ( 'detail', '', ( #243 ) ) ;
#74 = ORIENTED_EDGE ( 'NONE', *, *, #254, .T. ) ;
#75 = ORIENTED_EDGE ( 'NONE', *, *, #221, .T. ) ;
#76 = CIRCLE ( 'NONE', #242, 2.000000000000000000 ) ;
#77 = CC_DESIGN_PERSON_AND_ORGANIZATION_ASSIGNMENT ( #233, #265, ( #246 ) ) ;
#78 = DIRECTION ( 'NONE',  ( 1.000000000000000000, 0.000000000000000000, 0.000000000000000000 ) ) ;
#79 = CARTESIAN_POINT ( 'NONE',  ( 2.000000000000000000, 2.449293598294706414E-16, 2.000000000000000000 ) ) ;
#80 = TOROIDAL_SURFACE ( 'NONE', #259, 1.200000000000000178, 0.2000000000000000111 ) ;
#81 = DIRECTION ( 'NONE',  ( -0.000000000000000000, -0.000000000000000000, -1.000000000000000000 ) ) ;
#82 = CYLINDRICAL_SURFACE ( 'NONE', #190, 1.000000000000000000 ) ;
#83 = CARTESIAN_POINT ( 'NONE',  ( -2.000000000000000000, 0.000000000000000000, 2.000000000000000000 ) ) ;
#84 = PERSON ( 'NEURÈENÝ', 'NEURÈENÝ', 'NEURÈENÝ', ('NEURÈENÝ'), ('NEURÈENÝ'), ('NEURÈENÝ') ) ;
#85 = CARTESIAN_POINT ( 'NONE',  ( 2.000000000000000000, 2.449293598294706414E-16, 2.000000000000000000 ) ) ;
#86 = CC_DESIGN_DATE_AND_TIME_ASSIGNMENT ( #67, #22, ( #162 ) ) ;
#87 = CYLINDRICAL_SURFACE ( 'NONE', #272, 2.000000000000000000 ) ;
#88 = DIRECTION ( 'NONE',  ( 0.000000000000000000, 0.000000000000000000, 1.000000000000000000 ) ) ;
#89 = CARTESIAN_POINT ( 'NONE',  ( 0.000000000000000000, 0.000000000000000000, 2.200000000000007283 ) ) ;
#90 = APPROVAL_PERSON_ORGANIZATION ( #64, #264, #45 ) ;
#91 =( NAMED_UNIT ( * ) SI_UNIT ( $, .STERADIAN. ) SOLID_ANGLE_UNIT ( ) );
#92 = LINE ( 'NONE', #83, #46 ) ;
#93 = MECHANICAL_CONTEXT ( 'NONE', #111, 'mechanical' ) ;
#94 = ORIENTED_EDGE ( 'NONE', *, *, #277, .F. ) ;
#95 = PRODUCT_DEFINITION_SHAPE ( 'NONE', 'NONE',  #189 ) ;
#96 = ORIENTED_EDGE ( 'NONE', *, *, #296, .F. ) ;
#97 = EDGE_CURVE ( 'NONE', #291, #241, #196, .T. ) ;
#98 = AXIS2_PLACEMENT_3D ( 'NONE', #34, #35, #275 ) ;
#99 = EDGE_LOOP ( 'NONE', ( #14, #96, #290, #28 ) ) ;
#100 = ORIENTED_EDGE ( 'NONE', *, *, #221, .F. ) ;
#101 = DESIGN_CONTEXT ( 'detailed design', #139, 'design' ) ;
#102 = AXIS2_PLACEMENT_3D ( 'NONE', #253, #303, #232 ) ;
#103 = EDGE_CURVE ( 'NONE', #241, #239, #294, .T. ) ;
#104 = CARTESIAN_POINT ( 'NONE',  ( 0.000000000000000000, 0.000000000000000000, 202.0000000000000000 ) ) ;
#105 = VERTEX_POINT ( 'NONE', #52 ) ;
#106 = CC_DESIGN_APPROVAL ( #168, ( #189 ) ) ;
#107 = EDGE_LOOP ( 'NONE', ( #289, #157, #1, #223 ) ) ;
#108 = ORIENTED_EDGE ( 'NONE', *, *, #200, .T. ) ;
#109 = EDGE_LOOP ( 'NONE', ( #274, #201 ) ) ;
#110 = CC_DESIGN_PERSON_AND_ORGANIZATION_ASSIGNMENT ( #71, #185, ( #246 ) ) ;
#111 = APPLICATION_CONTEXT ( 'configuration controlled 3d designs of mechanical parts and assemblies' ) ;
#112 = CARTESIAN_POINT ( 'NONE',  ( 0.000000000000000000, 0.000000000000000000, 0.000000000000000000 ) ) ;
#113 = DIRECTION ( 'NONE',  ( 0.000000000000000000, -1.000000000000000000, 0.000000000000000000 ) ) ;
#114 = CIRCLE ( 'NONE', #66, 1.000000000000000000 ) ;
#115 = DATE_AND_TIME ( #27, #63 ) ;
#116 = FACE_BOUND ( 'NONE', #109, .T. ) ;
#117 = ADVANCED_FACE ( 'NONE', ( #152 ), #80, .F. ) ;
#118 = DIRECTION ( 'NONE',  ( -0.000000000000000000, -0.000000000000000000, -1.000000000000000000 ) ) ;
#119 = CC_DESIGN_SECURITY_CLASSIFICATION ( #162, ( #246 ) ) ;
#120 = DATE_AND_TIME ( #164, #280 ) ;
#121 = PLANE ( 'NONE',  #136 ) ;
#122 = CALENDAR_DATE ( 2022, 7, 7 ) ;
#123 = ORIENTED_EDGE ( 'NONE', *, *, #61, .F. ) ;
#124 = ORIENTED_EDGE ( 'NONE', *, *, #15, .F. ) ;
#125 = APPROVAL_PERSON_ORGANIZATION ( #24, #128, #278 ) ;
#126 = DIRECTION ( 'NONE',  ( 1.000000000000000000, 0.000000000000000000, 0.000000000000000000 ) ) ;
#127 = CARTESIAN_POINT ( 'NONE',  ( -1.000000000000000000, 0.000000000000000000, 202.0000000000000000 ) ) ;
#128 = APPROVAL ( #285, 'NEURÈENÝ' ) ;
#129 = CARTESIAN_POINT ( 'NONE',  ( 1.200000000000000178, 0.000000000000000000, 2.200000000000007283 ) ) ;
#130 = VECTOR ( 'NONE', #118, 1000.000000000000000 ) ;
#131 = FACE_OUTER_BOUND ( 'NONE', #193, .T. ) ;
#132 = ORIENTED_EDGE ( 'NONE', *, *, #149, .T. ) ;
#133 = CC_DESIGN_DATE_AND_TIME_ASSIGNMENT ( #120, #212, ( #189 ) ) ;
#134 = CARTESIAN_POINT ( 'NONE',  ( 1.000000000000000000, 1.224646799147353207E-16, 202.0000000000000000 ) ) ;
#135 = CARTESIAN_POINT ( 'NONE',  ( 0.000000000000000000, 0.000000000000000000, 202.0000000000000000 ) ) ;
#136 = AXIS2_PLACEMENT_3D ( 'NONE', #279, #161, #41 ) ;
#137 = DIRECTION ( 'NONE',  ( -0.000000000000000000, -0.000000000000000000, -1.000000000000000000 ) ) ;
#138 = EDGE_CURVE ( 'NONE', #31, #105, #155, .T. ) ;
#139 = APPLICATION_CONTEXT ( 'configuration controlled 3d designs of mechanical parts and assemblies' ) ;
#140 = ADVANCED_BREP_SHAPE_REPRESENTATION ( '4730', ( #288, #225 ), #151 ) ;
#141 = CARTESIAN_POINT ( 'NONE',  ( 2.000000000000000000, 2.449293598294706414E-16, 0.000000000000000000 ) ) ;
#142 = APPROVAL_DATE_TIME ( #304, #128 ) ;
#143 = DIRECTION ( 'NONE',  ( 1.000000000000000000, 0.000000000000000000, 0.000000000000000000 ) ) ;
#144 = CIRCLE ( 'NONE', #102, 0.2000000000000000944 ) ;
#145 = COORDINATED_UNIVERSAL_TIME_OFFSET ( 1, 0, .AHEAD. ) ;
#146 = ORIENTED_EDGE ( 'NONE', *, *, #235, .F. ) ;
#147 = COORDINATED_UNIVERSAL_TIME_OFFSET ( 1, 0, .AHEAD. ) ;
#148 = CIRCLE ( 'NONE', #40, 1.200000000000000178 ) ;
#149 = EDGE_CURVE ( 'NONE', #31, #197, #36, .T. ) ;
#150 = CARTESIAN_POINT ( 'NONE',  ( 1.000000000000000000, 1.224646799147353207E-16, 2.200000000000007283 ) ) ;
#151 =( GEOMETRIC_REPRESENTATION_CONTEXT ( 3 ) GLOBAL_UNCERTAINTY_ASSIGNED_CONTEXT ( ( #32 ) ) GLOBAL_UNIT_ASSIGNED_CONTEXT ( ( #188, #213, #91 ) ) REPRESENTATION_CONTEXT ( 'NONE', 'WORKASPACE' ) );
#152 = FACE_OUTER_BOUND ( 'NONE', #273, .T. ) ;
#153 = CIRCLE ( 'NONE', #248, 2.000000000000000000 ) ;
#154 = DIRECTION ( 'NONE',  ( -0.000000000000000000, -0.000000000000000000, -1.000000000000000000 ) ) ;
#155 = CIRCLE ( 'NONE', #229, 0.2000000000000000944 ) ;
#156 = ORIENTED_EDGE ( 'NONE', *, *, #200, .F. ) ;
#157 = ORIENTED_EDGE ( 'NONE', *, *, #25, .F. ) ;
#158 = FACE_OUTER_BOUND ( 'NONE', #219, .T. ) ;
#159 = DIRECTION ( 'NONE',  ( 0.000000000000000000, 0.000000000000000000, 1.000000000000000000 ) ) ;
#160 = COORDINATED_UNIVERSAL_TIME_OFFSET ( 1, 0, .AHEAD. ) ;
#161 = DIRECTION ( 'NONE',  ( 0.000000000000000000, 0.000000000000000000, 1.000000000000000000 ) ) ;
#162 = SECURITY_CLASSIFICATION ( '', '', #282 ) ;
#163 = DIRECTION ( 'NONE',  ( 0.000000000000000000, 0.000000000000000000, 1.000000000000000000 ) ) ;
#164 = CALENDAR_DATE ( 2022, 7, 7 ) ;
#165 = DIRECTION ( 'NONE',  ( 1.000000000000000000, 0.000000000000000000, 0.000000000000000000 ) ) ;
#166 = VERTEX_POINT ( 'NONE', #281 ) ;
#167 = AXIS2_PLACEMENT_3D ( 'NONE', #23, #159, #183 ) ;
#168 = APPROVAL ( #263, 'NEURÈENÝ' ) ;
#169 = PERSON_AND_ORGANIZATION ( #84, #51 ) ;
#170 = EDGE_CURVE ( 'NONE', #191, #239, #92, .T. ) ;
#171 = CARTESIAN_POINT ( 'NONE',  ( 0.000000000000000000, 0.000000000000000000, 0.000000000000000000 ) ) ;
#172 = DIRECTION ( 'NONE',  ( 0.000000000000000000, 0.000000000000000000, 1.000000000000000000 ) ) ;
#173 = ORIENTED_EDGE ( 'NONE', *, *, #296, .T. ) ;
#174 = VECTOR ( 'NONE', #81, 1000.000000000000000 ) ;
#175 = EDGE_LOOP ( 'NONE', ( #286, #56, #7, #54 ) ) ;
#176 = DIRECTION ( 'NONE',  ( 1.000000000000000000, 0.000000000000000000, 0.000000000000000000 ) ) ;
#177 = CARTESIAN_POINT ( 'NONE',  ( 0.000000000000000000, 0.000000000000000000, 2.000000000000000000 ) ) ;
#178 = DIRECTION ( 'NONE',  ( 0.000000000000000000, 0.000000000000000000, 1.000000000000000000 ) ) ;
#179 = PERSON_AND_ORGANIZATION ( #84, #51 ) ;
#180 = DIRECTION ( 'NONE',  ( -0.000000000000000000, -0.000000000000000000, -1.000000000000000000 ) ) ;
#181 = COORDINATED_UNIVERSAL_TIME_OFFSET ( 1, 0, .AHEAD. ) ;
#182 = ADVANCED_FACE ( 'NONE', ( #116, #158 ), #208, .T. ) ;
#183 = DIRECTION ( 'NONE',  ( 1.000000000000000000, 0.000000000000000000, 0.000000000000000000 ) ) ;
#184 = LOCAL_TIME ( 12, 35, 51.00000000000000000, #256 ) ;
#185 = PERSON_AND_ORGANIZATION_ROLE ( 'design_supplier' ) ;
#186 = CARTESIAN_POINT ( 'NONE',  ( 0.000000000000000000, 0.000000000000000000, 2.000000000000000000 ) ) ;
#187 = APPLICATION_PROTOCOL_DEFINITION ( 'international standard', 'config_control_design', 1994, #111 ) ;
#188 =( LENGTH_UNIT ( ) NAMED_UNIT ( * ) SI_UNIT ( .MILLI., .METRE. ) );
#189 = PRODUCT_DEFINITION ( 'NEZNÁMÝ', '', #246, #101 ) ;
#190 = AXIS2_PLACEMENT_3D ( 'NONE', #104, #154, #226 ) ;
#191 = VERTEX_POINT ( 'NONE', #65 ) ;
#192 = ADVANCED_FACE ( 'NONE', ( #255 ), #87, .T. ) ;
#193 = EDGE_LOOP ( 'NONE', ( #100, #37, #132, #216 ) ) ;
#194 = ORIENTED_EDGE ( 'NONE', *, *, #138, .T. ) ;
#195 = CC_DESIGN_PERSON_AND_ORGANIZATION_ASSIGNMENT ( #169, #302, ( #162 ) ) ;
#196 = LINE ( 'NONE', #79, #42 ) ;
#197 = VERTEX_POINT ( 'NONE', #301 ) ;
#198 = AXIS2_PLACEMENT_3D ( 'NONE', #135, #276, #58 ) ;
#199 = CYLINDRICAL_SURFACE ( 'NONE', #98, 2.000000000000000000 ) ;
#200 = EDGE_CURVE ( 'NONE', #197, #57, #144, .T. ) ;
#201 = ORIENTED_EDGE ( 'NONE', *, *, #61, .T. ) ;
#202 = DIRECTION ( 'NONE',  ( 0.000000000000000000, 0.000000000000000000, 1.000000000000000000 ) ) ;
#203 = AXIS2_PLACEMENT_3D ( 'NONE', #62, #18, #68 ) ;
#204 = DIRECTION ( 'NONE',  ( -0.000000000000000000, -0.000000000000000000, -1.000000000000000000 ) ) ;
#205 = DIRECTION ( 'NONE',  ( 0.000000000000000000, 0.000000000000000000, -1.000000000000000000 ) ) ;
#206 = ADVANCED_FACE ( 'NONE', ( #38 ), #39, .T. ) ;
#207 = CARTESIAN_POINT ( 'NONE',  ( 0.000000000000000000, 0.000000000000000000, 0.000000000000000000 ) ) ;
#208 = PLANE ( 'NONE',  #203 ) ;
#209 = APPROVAL_DATE_TIME ( #44, #168 ) ;
#210 = DIRECTION ( 'NONE',  ( 0.000000000000000000, 0.000000000000000000, 1.000000000000000000 ) ) ;
#211 = CIRCLE ( 'NONE', #198, 1.000000000000000000 ) ;
#212 = DATE_TIME_ROLE ( 'creation_date' ) ;
#213 =( NAMED_UNIT ( * ) PLANE_ANGLE_UNIT ( ) SI_UNIT ( $, .RADIAN. ) );
#214 = TOROIDAL_SURFACE ( 'NONE', #252, 1.200000000000000178, 0.2000000000000000111 ) ;
#215 = PERSON_AND_ORGANIZATION ( #84, #51 ) ;
#216 = ORIENTED_EDGE ( 'NONE', *, *, #69, .F. ) ;
#217 = AXIS2_PLACEMENT_3D ( 'NONE', #249, #172, #271 ) ;
#218 = ORIENTED_EDGE ( 'NONE', *, *, #25, .T. ) ;
#219 = EDGE_LOOP ( 'NONE', ( #173, #74 ) ) ;
#220 = AXIS2_PLACEMENT_3D ( 'NONE', #112, #210, #305 ) ;
#221 = EDGE_CURVE ( 'NONE', #48, #166, #211, .T. ) ;
#222 = LINE ( 'NONE', #127, #174 ) ;
#223 = ORIENTED_EDGE ( 'NONE', *, *, #235, .T. ) ;
#224 = CARTESIAN_POINT ( 'NONE',  ( 0.000000000000000000, 0.000000000000000000, 2.200000000000007283 ) ) ;
#225 = AXIS2_PLACEMENT_3D ( 'NONE', #207, #88, #238 ) ;
#226 = DIRECTION ( 'NONE',  ( -1.000000000000000000, 0.000000000000000000, 0.000000000000000000 ) ) ;
#227 = FACE_OUTER_BOUND ( 'NONE', #99, .T. ) ;
#228 = FACE_OUTER_BOUND ( 'NONE', #5, .T. ) ;
#229 = AXIS2_PLACEMENT_3D ( 'NONE', #129, #113, #205 ) ;
#230 = ADVANCED_FACE ( 'NONE', ( #262 ), #121, .T. ) ;
#231 = DIRECTION ( 'NONE',  ( 0.000000000000000000, 0.000000000000000000, 1.000000000000000000 ) ) ;
#232 = DIRECTION ( 'NONE',  ( -1.000000000000000000, 1.224646799147351975E-16, 0.000000000000000000 ) ) ;
#233 = PERSON_AND_ORGANIZATION ( #84, #51 ) ;
#234 = DIRECTION ( 'NONE',  ( 1.000000000000000000, 0.000000000000000000, 0.000000000000000000 ) ) ;
#235 = EDGE_CURVE ( 'NONE', #197, #31, #267, .T. ) ;
#236 = CALENDAR_DATE ( 2022, 7, 7 ) ;
#237 = DIRECTION ( 'NONE',  ( -1.000000000000000000, 0.000000000000000000, 0.000000000000000000 ) ) ;
#238 = DIRECTION ( 'NONE',  ( 1.000000000000000000, 0.000000000000000000, 0.000000000000000000 ) ) ;
#239 = VERTEX_POINT ( 'NONE', #43 ) ;
#240 = EDGE_LOOP ( 'NONE', ( #218, #75 ) ) ;
#241 = VERTEX_POINT ( 'NONE', #141 ) ;
#242 = AXIS2_PLACEMENT_3D ( 'NONE', #297, #231, #234 ) ;
#243 = PRODUCT ( '4730', '4730', '', ( #93 ) ) ;
#244 = CC_DESIGN_PERSON_AND_ORGANIZATION_ASSIGNMENT ( #306, #261, ( #243 ) ) ;
#245 = CARTESIAN_POINT ( 'NONE',  ( 0.000000000000000000, 0.000000000000000000, 2.000000000000000000 ) ) ;
#246 = PRODUCT_DEFINITION_FORMATION_WITH_SPECIFIED_SOURCE ( 'LIBOVOLNÝ', '', #243, .NOT_KNOWN. ) ;
#247 = DIRECTION ( 'NONE',  ( 1.000000000000000000, 0.000000000000000000, 0.000000000000000000 ) ) ;
#248 = AXIS2_PLACEMENT_3D ( 'NONE', #171, #9, #78 ) ;
#249 = CARTESIAN_POINT ( 'NONE',  ( 0.000000000000000000, 0.000000000000000000, 0.000000000000000000 ) ) ;
#250 = ORIENTED_EDGE ( 'NONE', *, *, #149, .F. ) ;
#251 = CARTESIAN_POINT ( 'NONE',  ( 0.000000000000000000, 0.000000000000000000, 2.200000000000007283 ) ) ;
#252 = AXIS2_PLACEMENT_3D ( 'NONE', #251, #202, #247 ) ;
#253 = CARTESIAN_POINT ( 'NONE',  ( -1.200000000000000178, 1.469576158976823799E-16, 2.200000000000007283 ) ) ;
#254 = EDGE_CURVE ( 'NONE', #291, #191, #76, .T. ) ;
#255 = FACE_OUTER_BOUND ( 'NONE', #175, .T. ) ;
#256 = COORDINATED_UNIVERSAL_TIME_OFFSET ( 1, 0, .AHEAD. ) ;
#257 = AXIS2_PLACEMENT_3D ( 'NONE', #59, #180, #258 ) ;
#258 = DIRECTION ( 'NONE',  ( -1.000000000000000000, 0.000000000000000000, 0.000000000000000000 ) ) ;
#259 = AXIS2_PLACEMENT_3D ( 'NONE', #224, #12, #143 ) ;
#260 = DIRECTION ( 'NONE',  ( 1.000000000000000000, 0.000000000000000000, 0.000000000000000000 ) ) ;
#261 = PERSON_AND_ORGANIZATION_ROLE ( 'design_owner' ) ;
#262 = FACE_OUTER_BOUND ( 'NONE', #240, .T. ) ;
#263 = APPROVAL_STATUS ( 'not_yet_approved' ) ;
#264 = APPROVAL ( #47, 'NEURÈENÝ' ) ;
#265 = PERSON_AND_ORGANIZATION_ROLE ( 'creator' ) ;
#266 = EDGE_CURVE ( 'NONE', #48, #31, #21, .T. ) ;
#267 = CIRCLE ( 'NONE', #2, 1.000000000000000000 ) ;
#268 = CLOSED_SHELL ( 'NONE', ( #10, #30, #192, #6, #182, #269, #206, #230, #117 ) ) ;
#269 = ADVANCED_FACE ( 'NONE', ( #228 ), #17, .F. ) ;
#270 = CARTESIAN_POINT ( 'NONE',  ( 0.000000000000000000, 0.000000000000000000, 202.0000000000000000 ) ) ;
#271 = DIRECTION ( 'NONE',  ( 1.000000000000000000, 0.000000000000000000, 0.000000000000000000 ) ) ;
#272 = AXIS2_PLACEMENT_3D ( 'NONE', #177, #137, #237 ) ;
#273 = EDGE_LOOP ( 'NONE', ( #156, #250, #194, #123 ) ) ;
#274 = ORIENTED_EDGE ( 'NONE', *, *, #277, .T. ) ;
#275 = DIRECTION ( 'NONE',  ( -1.000000000000000000, 0.000000000000000000, 0.000000000000000000 ) ) ;
#276 = DIRECTION ( 'NONE',  ( 0.000000000000000000, 0.000000000000000000, 1.000000000000000000 ) ) ;
#277 = EDGE_CURVE ( 'NONE', #105, #57, #148, .T. ) ;
#278 = APPROVAL_ROLE ( '' ) ;
#279 = CARTESIAN_POINT ( 'NONE',  ( 0.000000000000000000, 0.000000000000000000, 202.0000000000000000 ) ) ;
#280 = LOCAL_TIME ( 12, 35, 51.00000000000000000, #145 ) ;
#281 = CARTESIAN_POINT ( 'NONE',  ( -1.000000000000000000, 0.000000000000000000, 202.0000000000000000 ) ) ;
#282 = SECURITY_CLASSIFICATION_LEVEL ( 'unclassified' ) ;
#283 = CARTESIAN_POINT ( 'NONE',  ( 0.000000000000000000, 0.000000000000000000, 2.000000000000000000 ) ) ;
#284 = APPROVAL_ROLE ( '' ) ;
#285 = APPROVAL_STATUS ( 'not_yet_approved' ) ;
#286 = ORIENTED_EDGE ( 'NONE', *, *, #254, .F. ) ;
#287 = ORIENTED_EDGE ( 'NONE', *, *, #103, .F. ) ;
#288 = MANIFOLD_SOLID_BREP ( 'Zaoblit1', #268 ) ;
#289 = ORIENTED_EDGE ( 'NONE', *, *, #266, .F. ) ;
#290 = ORIENTED_EDGE ( 'NONE', *, *, #170, .T. ) ;
#291 = VERTEX_POINT ( 'NONE', #85 ) ;
#292 = LOCAL_TIME ( 12, 35, 51.00000000000000000, #160 ) ;
#293 = CARTESIAN_POINT ( 'NONE',  ( 1.000000000000000000, 1.224646799147353207E-16, 202.0000000000000000 ) ) ;
#294 = CIRCLE ( 'NONE', #217, 2.000000000000000000 ) ;
#295 = CARTESIAN_POINT ( 'NONE',  ( -1.200000000000000178, 1.469576158976823799E-16, 2.000000000000003553 ) ) ;
#296 = EDGE_CURVE ( 'NONE', #191, #291, #8, .T. ) ;
#297 = CARTESIAN_POINT ( 'NONE',  ( 0.000000000000000000, 0.000000000000000000, 2.000000000000000000 ) ) ;
#298 = APPROVAL_PERSON_ORGANIZATION ( #179, #168, #284 ) ;
#299 = DIRECTION ( 'NONE',  ( 1.000000000000000000, 0.000000000000000000, 0.000000000000000000 ) ) ;
#300 = APPROVAL_DATE_TIME ( #115, #264 ) ;
#301 = CARTESIAN_POINT ( 'NONE',  ( -1.000000000000000000, 0.000000000000000000, 2.200000000000007283 ) ) ;
#302 = PERSON_AND_ORGANIZATION_ROLE ( 'classification_officer' ) ;
#303 = DIRECTION ( 'NONE',  ( 1.224646799147353207E-16, 1.000000000000000000, -0.000000000000000000 ) ) ;
#304 = DATE_AND_TIME ( #236, #292 ) ;
#305 = DIRECTION ( 'NONE',  ( 1.000000000000000000, 0.000000000000000000, -0.000000000000000000 ) ) ;
#306 = PERSON_AND_ORGANIZATION ( #84, #51 ) ;
#307 = PERSON_AND_ORGANIZATION_ROLE ( 'creator' ) ;
ENDSEC;
END-ISO-10303-21;
