ISO-10303-21;
HEADER;
FILE_DESCRIPTION (( 'STEP AP203' ),
    '1' );
FILE_NAME ('e74f.STEP',
    '2023-02-12T11:26:29',
    ( '' ),
    ( '' ),
    'SwSTEP 2.0',
    'SolidWorks 2019',
    '' );
FILE_SCHEMA (( 'CONFIG_CONTROL_DESIGN' ));
ENDSEC;

DATA;
#1 = CIRCLE ( 'NONE', #139, 5.000000000000000888 ) ;
#2 = CARTESIAN_POINT ( 'NONE',  ( 0.000000000000000000, 0.000000000000000000, 5.000000000000000000 ) ) ;
#3 = LINE ( 'NONE', #150, #88 ) ;
#4 = PERSON_AND_ORGANIZATION ( #195, #218 ) ;
#5 = AXIS2_PLACEMENT_3D ( 'NONE', #87, #146, #187 ) ;
#6 = DIRECTION ( 'NONE',  ( -1.000000000000000000, 0.000000000000000000, 0.000000000000000000 ) ) ;
#7 = CYLINDRICAL_SURFACE ( 'NONE', #121, 8.000000000000000000 ) ;
#8 = PERSON_AND_ORGANIZATION_ROLE ( 'creator' ) ;
#9 = ORIENTED_EDGE ( 'NONE', *, *, #47, .T. ) ;
#10 = CC_DESIGN_PERSON_AND_ORGANIZATION_ASSIGNMENT ( #24, #228, ( #15 ) ) ;
#11 = APPROVAL_STATUS ( 'not_yet_approved' ) ;
#12 = CARTESIAN_POINT ( 'NONE',  ( 5.000000000000000888, 6.123233995736767268E-16, 5.000000000000000000 ) ) ;
#13 = ORIENTED_EDGE ( 'NONE', *, *, #137, .F. ) ;
#14 = VECTOR ( 'NONE', #22, 1000.000000000000000 ) ;
#15 = PRODUCT_DEFINITION_FORMATION_WITH_SPECIFIED_SOURCE ( 'LIBOVOLNÝ', '', #242, .NOT_KNOWN. ) ;
#16 = CYLINDRICAL_SURFACE ( 'NONE', #5, 5.000000000000000888 ) ;
#17 = DIRECTION ( 'NONE',  ( -1.000000000000000000, 0.000000000000000000, 0.000000000000000000 ) ) ;
#18 = ADVANCED_FACE ( 'NONE', ( #25 ), #7, .T. ) ;
#19 = EDGE_CURVE ( 'NONE', #45, #127, #193, .T. ) ;
#20 = VERTEX_POINT ( 'NONE', #23 ) ;
#21 = AXIS2_PLACEMENT_3D ( 'NONE', #234, #130, #17 ) ;
#22 = DIRECTION ( 'NONE',  ( -0.000000000000000000, -0.000000000000000000, -1.000000000000000000 ) ) ;
#23 = CARTESIAN_POINT ( 'NONE',  ( -8.000000000000000000, 0.000000000000000000, 0.000000000000000000 ) ) ;
#24 = PERSON_AND_ORGANIZATION ( #195, #218 ) ;
#25 = FACE_OUTER_BOUND ( 'NONE', #106, .T. ) ;
#26 = VERTEX_POINT ( 'NONE', #12 ) ;
#27 = ORIENTED_EDGE ( 'NONE', *, *, #85, .T. ) ;
#28 = DATE_AND_TIME ( #65, #202 ) ;
#29 = VERTEX_POINT ( 'NONE', #157 ) ;
#30 = PERSON_AND_ORGANIZATION ( #195, #218 ) ;
#31 = FACE_OUTER_BOUND ( 'NONE', #208, .T. ) ;
#32 = ADVANCED_FACE ( 'NONE', ( #135 ), #64, .T. ) ;
#33 = APPROVAL ( #118, 'NEURÈENÝ' ) ;
#34 = CIRCLE ( 'NONE', #164, 8.000000000000000000 ) ;
#35 = CIRCLE ( 'NONE', #161, 5.000000000000000888 ) ;
#36 = DIRECTION ( 'NONE',  ( 1.000000000000000000, 0.000000000000000000, 0.000000000000000000 ) ) ;
#37 = VERTEX_POINT ( 'NONE', #96 ) ;
#38 = PLANE ( 'NONE',  #237 ) ;
#39 = CARTESIAN_POINT ( 'NONE',  ( 0.000000000000000000, 0.000000000000000000, 0.000000000000000000 ) ) ;
#40 = CARTESIAN_POINT ( 'NONE',  ( 0.000000000000000000, 0.000000000000000000, 630.0000000000000000 ) ) ;
#41 = DIRECTION ( 'NONE',  ( 1.000000000000000000, 0.000000000000000000, 0.000000000000000000 ) ) ;
#42 = CARTESIAN_POINT ( 'NONE',  ( 8.000000000000000000, 9.797174393178825657E-16, 5.000000000000000000 ) ) ;
#43 = CARTESIAN_POINT ( 'NONE',  ( 0.000000000000000000, 0.000000000000000000, 0.000000000000000000 ) ) ;
#44 = COORDINATED_UNIVERSAL_TIME_OFFSET ( 1, 0, .AHEAD. ) ;
#45 = VERTEX_POINT ( 'NONE', #42 ) ;
#46 = ORIENTED_EDGE ( 'NONE', *, *, #55, .T. ) ;
#47 = EDGE_CURVE ( 'NONE', #29, #37, #3, .T. ) ;
#48 = CIRCLE ( 'NONE', #108, 8.000000000000000000 ) ;
#49 = APPROVAL_ROLE ( '' ) ;
#50 = ORIENTED_EDGE ( 'NONE', *, *, #19, .F. ) ;
#51 = CARTESIAN_POINT ( 'NONE',  ( -8.000000000000000000, 0.000000000000000000, 5.000000000000000000 ) ) ;
#52 = EDGE_LOOP ( 'NONE', ( #13, #141 ) ) ;
#53 = CALENDAR_DATE ( 2023, 12, 2 ) ;
#54 = CIRCLE ( 'NONE', #79, 5.000000000000000888 ) ;
#55 = EDGE_CURVE ( 'NONE', #127, #20, #145, .T. ) ;
#56 = CC_DESIGN_SECURITY_CLASSIFICATION ( #156, ( #15 ) ) ;
#57 = CC_DESIGN_PERSON_AND_ORGANIZATION_ASSIGNMENT ( #203, #172, ( #156 ) ) ;
#58 = AXIS2_PLACEMENT_3D ( 'NONE', #196, #249, #97 ) ;
#59 = DIRECTION ( 'NONE',  ( 1.000000000000000000, 0.000000000000000000, -0.000000000000000000 ) ) ;
#60 = PLANE ( 'NONE',  #244 ) ;
#61 = DIRECTION ( 'NONE',  ( 1.000000000000000000, 0.000000000000000000, 0.000000000000000000 ) ) ;
#62 = CARTESIAN_POINT ( 'NONE',  ( 0.000000000000000000, 0.000000000000000000, 630.0000000000000000 ) ) ;
#63 = SHAPE_DEFINITION_REPRESENTATION ( #151, #190 ) ;
#64 = PLANE ( 'NONE',  #160 ) ;
#65 = CALENDAR_DATE ( 2023, 12, 2 ) ;
#66 = EDGE_LOOP ( 'NONE', ( #200, #147, #9, #158 ) ) ;
#67 = APPROVAL_DATE_TIME ( #28, #125 ) ;
#68 = ORIENTED_EDGE ( 'NONE', *, *, #98, .T. ) ;
#69 = DIRECTION ( 'NONE',  ( -0.000000000000000000, -0.000000000000000000, -1.000000000000000000 ) ) ;
#70 = CLOSED_SHELL ( 'NONE', ( #89, #233, #18, #224, #238, #209, #32 ) ) ;
#71 = PRODUCT_DEFINITION ( 'NEZNÁMÝ', '', #15, #223 ) ;
#72 = APPLICATION_PROTOCOL_DEFINITION ( 'international standard', 'config_control_design', 1994, #113 ) ;
#73 = APPLICATION_CONTEXT ( 'configuration controlled 3d designs of mechanical parts and assemblies' ) ;
#74 = FACE_OUTER_BOUND ( 'NONE', #154, .T. ) ;
#75 = PRODUCT_RELATED_PRODUCT_CATEGORY ( 'detail', '', ( #242 ) ) ;
#76 = FACE_OUTER_BOUND ( 'NONE', #169, .T. ) ;
#77 = DIRECTION ( 'NONE',  ( 1.000000000000000000, 0.000000000000000000, -0.000000000000000000 ) ) ;
#78 = APPLICATION_PROTOCOL_DEFINITION ( 'international standard', 'config_control_design', 1994, #73 ) ;
#79 = AXIS2_PLACEMENT_3D ( 'NONE', #81, #201, #210 ) ;
#80 = LOCAL_TIME ( 12, 26, 29.00000000000000000, #207 ) ;
#81 = CARTESIAN_POINT ( 'NONE',  ( 0.000000000000000000, 0.000000000000000000, 630.0000000000000000 ) ) ;
#82 = CALENDAR_DATE ( 2023, 12, 2 ) ;
#83 = VECTOR ( 'NONE', #179, 1000.000000000000000 ) ;
#84 = ORIENTED_EDGE ( 'NONE', *, *, #168, .T. ) ;
#85 = EDGE_CURVE ( 'NONE', #29, #173, #54, .T. ) ;
#86 = LOCAL_TIME ( 12, 26, 29.00000000000000000, #44 ) ;
#87 = CARTESIAN_POINT ( 'NONE',  ( 0.000000000000000000, 0.000000000000000000, 630.0000000000000000 ) ) ;
#88 = VECTOR ( 'NONE', #174, 1000.000000000000000 ) ;
#89 = ADVANCED_FACE ( 'NONE', ( #31 ), #229, .T. ) ;
#90 = ORIENTED_EDGE ( 'NONE', *, *, #47, .F. ) ;
#91 =( NAMED_UNIT ( * ) PLANE_ANGLE_UNIT ( ) SI_UNIT ( $, .RADIAN. ) );
#92 = DIRECTION ( 'NONE',  ( 0.000000000000000000, 0.000000000000000000, 1.000000000000000000 ) ) ;
#93 = CARTESIAN_POINT ( 'NONE',  ( 0.000000000000000000, 0.000000000000000000, 5.000000000000000000 ) ) ;
#94 = CARTESIAN_POINT ( 'NONE',  ( 0.000000000000000000, 0.000000000000000000, 0.000000000000000000 ) ) ;
#95 = DIRECTION ( 'NONE',  ( 0.000000000000000000, 0.000000000000000000, 1.000000000000000000 ) ) ;
#96 = CARTESIAN_POINT ( 'NONE',  ( -5.000000000000000888, 0.000000000000000000, 5.000000000000000000 ) ) ;
#97 = DIRECTION ( 'NONE',  ( 1.000000000000000000, 0.000000000000000000, 0.000000000000000000 ) ) ;
#98 = EDGE_CURVE ( 'NONE', #45, #136, #100, .T. ) ;
#99 = DATE_AND_TIME ( #53, #86 ) ;
#100 = CIRCLE ( 'NONE', #58, 8.000000000000000000 ) ;
#101 = CC_DESIGN_PERSON_AND_ORGANIZATION_ASSIGNMENT ( #246, #194, ( #242 ) ) ;
#102 = ORIENTED_EDGE ( 'NONE', *, *, #197, .T. ) ;
#103 = APPROVAL_STATUS ( 'not_yet_approved' ) ;
#104 = CARTESIAN_POINT ( 'NONE',  ( 8.000000000000000000, 9.797174393178825657E-16, 5.000000000000000000 ) ) ;
#105 = APPROVAL_PERSON_ORGANIZATION ( #30, #125, #155 ) ;
#106 = EDGE_LOOP ( 'NONE', ( #50, #120, #235, #132 ) ) ;
#107 = EDGE_CURVE ( 'NONE', #136, #20, #140, .T. ) ;
#108 = AXIS2_PLACEMENT_3D ( 'NONE', #205, #95, #41 ) ;
#109 = DIRECTION ( 'NONE',  ( -0.000000000000000000, -0.000000000000000000, -1.000000000000000000 ) ) ;
#110 = CARTESIAN_POINT ( 'NONE',  ( 5.000000000000000888, 6.123233995736767268E-16, 630.0000000000000000 ) ) ;
#111 =( NAMED_UNIT ( * ) SI_UNIT ( $, .STERADIAN. ) SOLID_ANGLE_UNIT ( ) );
#112 = EDGE_CURVE ( 'NONE', #136, #45, #48, .T. ) ;
#113 = APPLICATION_CONTEXT ( 'configuration controlled 3d designs of mechanical parts and assemblies' ) ;
#114 = DIRECTION ( 'NONE',  ( 0.000000000000000000, 0.000000000000000000, 1.000000000000000000 ) ) ;
#115 = PERSON_AND_ORGANIZATION ( #195, #218 ) ;
#116 = EDGE_CURVE ( 'NONE', #37, #26, #1, .T. ) ;
#117 = DIRECTION ( 'NONE',  ( 0.000000000000000000, 0.000000000000000000, 1.000000000000000000 ) ) ;
#118 = APPROVAL_STATUS ( 'not_yet_approved' ) ;
#119 = DATE_AND_TIME ( #82, #181 ) ;
#120 = ORIENTED_EDGE ( 'NONE', *, *, #112, .F. ) ;
#121 = AXIS2_PLACEMENT_3D ( 'NONE', #245, #221, #6 ) ;
#122 = AXIS2_PLACEMENT_3D ( 'NONE', #40, #92, #128 ) ;
#123 = ORIENTED_EDGE ( 'NONE', *, *, #112, .T. ) ;
#124 = SECURITY_CLASSIFICATION_LEVEL ( 'unclassified' ) ;
#125 = APPROVAL ( #11, 'NEURÈENÝ' ) ;
#126 = PERSON_AND_ORGANIZATION ( #195, #218 ) ;
#127 = VERTEX_POINT ( 'NONE', #131 ) ;
#128 = DIRECTION ( 'NONE',  ( 1.000000000000000000, 0.000000000000000000, 0.000000000000000000 ) ) ;
#129 = DIRECTION ( 'NONE',  ( 0.000000000000000000, 0.000000000000000000, 1.000000000000000000 ) ) ;
#130 = DIRECTION ( 'NONE',  ( -0.000000000000000000, -0.000000000000000000, -1.000000000000000000 ) ) ;
#131 = CARTESIAN_POINT ( 'NONE',  ( 8.000000000000000000, 9.797174393178825657E-16, 0.000000000000000000 ) ) ;
#132 = ORIENTED_EDGE ( 'NONE', *, *, #137, .T. ) ;
#133 = APPROVAL_PERSON_ORGANIZATION ( #126, #211, #49 ) ;
#134 = DATE_TIME_ROLE ( 'classification_date' ) ;
#135 = FACE_OUTER_BOUND ( 'NONE', #250, .T. ) ;
#136 = VERTEX_POINT ( 'NONE', #217 ) ;
#137 = EDGE_CURVE ( 'NONE', #20, #127, #34, .T. ) ;
#138 = DATE_AND_TIME ( #180, #80 ) ;
#139 = AXIS2_PLACEMENT_3D ( 'NONE', #93, #167, #61 ) ;
#140 = LINE ( 'NONE', #51, #14 ) ;
#141 = ORIENTED_EDGE ( 'NONE', *, *, #55, .F. ) ;
#142 = PERSON_AND_ORGANIZATION_ROLE ( 'creator' ) ;
#143 = LINE ( 'NONE', #222, #253 ) ;
#144 = CC_DESIGN_PERSON_AND_ORGANIZATION_ASSIGNMENT ( #4, #8, ( #15 ) ) ;
#145 = CIRCLE ( 'NONE', #255, 8.000000000000000000 ) ;
#146 = DIRECTION ( 'NONE',  ( -0.000000000000000000, -0.000000000000000000, -1.000000000000000000 ) ) ;
#147 = ORIENTED_EDGE ( 'NONE', *, *, #85, .F. ) ;
#148 = DIRECTION ( 'NONE',  ( 0.000000000000000000, 0.000000000000000000, 1.000000000000000000 ) ) ;
#149 = APPROVAL_DATE_TIME ( #138, #211 ) ;
#150 = CARTESIAN_POINT ( 'NONE',  ( -5.000000000000000888, 0.000000000000000000, 630.0000000000000000 ) ) ;
#151 = PRODUCT_DEFINITION_SHAPE ( 'NONE', 'NONE',  #71 ) ;
#152 = APPROVAL_PERSON_ORGANIZATION ( #115, #33, #247 ) ;
#153 = COORDINATED_UNIVERSAL_TIME_OFFSET ( 1, 0, .AHEAD. ) ;
#154 = EDGE_LOOP ( 'NONE', ( #176, #183, #46, #206 ) ) ;
#155 = APPROVAL_ROLE ( '' ) ;
#156 = SECURITY_CLASSIFICATION ( '', '', #124 ) ;
#157 = CARTESIAN_POINT ( 'NONE',  ( -5.000000000000000888, 0.000000000000000000, 630.0000000000000000 ) ) ;
#158 = ORIENTED_EDGE ( 'NONE', *, *, #116, .T. ) ;
#159 = CARTESIAN_POINT ( 'NONE',  ( 0.000000000000000000, 0.000000000000000000, 630.0000000000000000 ) ) ;
#160 = AXIS2_PLACEMENT_3D ( 'NONE', #62, #219, #77 ) ;
#161 = AXIS2_PLACEMENT_3D ( 'NONE', #184, #129, #231 ) ;
#162 = CC_DESIGN_DATE_AND_TIME_ASSIGNMENT ( #99, #134, ( #156 ) ) ;
#163 = ORIENTED_EDGE ( 'NONE', *, *, #116, .F. ) ;
#164 = AXIS2_PLACEMENT_3D ( 'NONE', #171, #182, #36 ) ;
#165 = UNCERTAINTY_MEASURE_WITH_UNIT (LENGTH_MEASURE( 1.000000000000000082E-05 ), #192, 'distance_accuracy_value', 'NONE');
#166 = LOCAL_TIME ( 12, 26, 29.00000000000000000, #153 ) ;
#167 = DIRECTION ( 'NONE',  ( 0.000000000000000000, 0.000000000000000000, 1.000000000000000000 ) ) ;
#168 = EDGE_CURVE ( 'NONE', #173, #26, #143, .T. ) ;
#169 = EDGE_LOOP ( 'NONE', ( #123, #68 ) ) ;
#170 = DIRECTION ( 'NONE',  ( 1.000000000000000000, 0.000000000000000000, 0.000000000000000000 ) ) ;
#171 = CARTESIAN_POINT ( 'NONE',  ( 0.000000000000000000, 0.000000000000000000, 0.000000000000000000 ) ) ;
#172 = PERSON_AND_ORGANIZATION_ROLE ( 'classification_officer' ) ;
#173 = VERTEX_POINT ( 'NONE', #110 ) ;
#174 = DIRECTION ( 'NONE',  ( -0.000000000000000000, -0.000000000000000000, -1.000000000000000000 ) ) ;
#175 = DATE_AND_TIME ( #241, #166 ) ;
#176 = ORIENTED_EDGE ( 'NONE', *, *, #98, .F. ) ;
#177 = ORIENTED_EDGE ( 'NONE', *, *, #220, .F. ) ;
#178 = COORDINATED_UNIVERSAL_TIME_OFFSET ( 1, 0, .AHEAD. ) ;
#179 = DIRECTION ( 'NONE',  ( -0.000000000000000000, -0.000000000000000000, -1.000000000000000000 ) ) ;
#180 = CALENDAR_DATE ( 2023, 12, 2 ) ;
#181 = LOCAL_TIME ( 12, 26, 29.00000000000000000, #178 ) ;
#182 = DIRECTION ( 'NONE',  ( 0.000000000000000000, 0.000000000000000000, 1.000000000000000000 ) ) ;
#183 = ORIENTED_EDGE ( 'NONE', *, *, #19, .T. ) ;
#184 = CARTESIAN_POINT ( 'NONE',  ( 0.000000000000000000, 0.000000000000000000, 5.000000000000000000 ) ) ;
#185 = DIRECTION ( 'NONE',  ( -1.000000000000000000, 0.000000000000000000, 0.000000000000000000 ) ) ;
#186 = FACE_OUTER_BOUND ( 'NONE', #66, .T. ) ;
#187 = DIRECTION ( 'NONE',  ( -1.000000000000000000, 0.000000000000000000, 0.000000000000000000 ) ) ;
#188 = CC_DESIGN_APPROVAL ( #33, ( #71 ) ) ;
#189 = CC_DESIGN_PERSON_AND_ORGANIZATION_ASSIGNMENT ( #204, #142, ( #71 ) ) ;
#190 = ADVANCED_BREP_SHAPE_REPRESENTATION ( 'e74f', ( #243, #251 ), #230 ) ;
#191 = DIRECTION ( 'NONE',  ( 1.000000000000000000, 0.000000000000000000, -0.000000000000000000 ) ) ;
#192 =( LENGTH_UNIT ( ) NAMED_UNIT ( * ) SI_UNIT ( .MILLI., .METRE. ) );
#193 = LINE ( 'NONE', #104, #83 ) ;
#194 = PERSON_AND_ORGANIZATION_ROLE ( 'design_owner' ) ;
#195 = PERSON ( 'NEURÈENÝ', 'NEURÈENÝ', 'NEURÈENÝ', ('NEURÈENÝ'), ('NEURÈENÝ'), ('NEURÈENÝ') ) ;
#196 = CARTESIAN_POINT ( 'NONE',  ( 0.000000000000000000, 0.000000000000000000, 5.000000000000000000 ) ) ;
#197 = EDGE_CURVE ( 'NONE', #26, #37, #35, .T. ) ;
#198 = ORIENTED_EDGE ( 'NONE', *, *, #220, .T. ) ;
#199 = DATE_TIME_ROLE ( 'creation_date' ) ;
#200 = ORIENTED_EDGE ( 'NONE', *, *, #168, .F. ) ;
#201 = DIRECTION ( 'NONE',  ( 0.000000000000000000, 0.000000000000000000, 1.000000000000000000 ) ) ;
#202 = LOCAL_TIME ( 12, 26, 29.00000000000000000, #252 ) ;
#203 = PERSON_AND_ORGANIZATION ( #195, #218 ) ;
#204 = PERSON_AND_ORGANIZATION ( #195, #218 ) ;
#205 = CARTESIAN_POINT ( 'NONE',  ( 0.000000000000000000, 0.000000000000000000, 5.000000000000000000 ) ) ;
#206 = ORIENTED_EDGE ( 'NONE', *, *, #107, .F. ) ;
#207 = COORDINATED_UNIVERSAL_TIME_OFFSET ( 1, 0, .AHEAD. ) ;
#208 = EDGE_LOOP ( 'NONE', ( #177, #84, #102, #90 ) ) ;
#209 = ADVANCED_FACE ( 'NONE', ( #186 ), #16, .T. ) ;
#210 = DIRECTION ( 'NONE',  ( 1.000000000000000000, 0.000000000000000000, 0.000000000000000000 ) ) ;
#211 = APPROVAL ( #103, 'NEURÈENÝ' ) ;
#212 = CIRCLE ( 'NONE', #122, 5.000000000000000888 ) ;
#213 = FACE_OUTER_BOUND ( 'NONE', #52, .T. ) ;
#214 = AXIS2_PLACEMENT_3D ( 'NONE', #159, #69, #185 ) ;
#215 = CYLINDRICAL_SURFACE ( 'NONE', #21, 8.000000000000000000 ) ;
#216 = MECHANICAL_CONTEXT ( 'NONE', #113, 'mechanical' ) ;
#217 = CARTESIAN_POINT ( 'NONE',  ( -8.000000000000000000, 0.000000000000000000, 5.000000000000000000 ) ) ;
#218 = ORGANIZATION ( 'NEURÈENÝ', 'NEURÈENÝ', '' ) ;
#219 = DIRECTION ( 'NONE',  ( 0.000000000000000000, 0.000000000000000000, 1.000000000000000000 ) ) ;
#220 = EDGE_CURVE ( 'NONE', #173, #29, #212, .T. ) ;
#221 = DIRECTION ( 'NONE',  ( -0.000000000000000000, -0.000000000000000000, -1.000000000000000000 ) ) ;
#222 = CARTESIAN_POINT ( 'NONE',  ( 5.000000000000000888, 6.123233995736767268E-16, 630.0000000000000000 ) ) ;
#223 = DESIGN_CONTEXT ( 'detailed design', #73, 'design' ) ;
#224 = ADVANCED_FACE ( 'NONE', ( #236, #76 ), #60, .T. ) ;
#225 = DIRECTION ( 'NONE',  ( 1.000000000000000000, 0.000000000000000000, 0.000000000000000000 ) ) ;
#226 = APPROVAL_DATE_TIME ( #119, #33 ) ;
#227 = EDGE_LOOP ( 'NONE', ( #163, #248 ) ) ;
#228 = PERSON_AND_ORGANIZATION_ROLE ( 'design_supplier' ) ;
#229 = CYLINDRICAL_SURFACE ( 'NONE', #214, 5.000000000000000888 ) ;
#230 =( GEOMETRIC_REPRESENTATION_CONTEXT ( 3 ) GLOBAL_UNCERTAINTY_ASSIGNED_CONTEXT ( ( #165 ) ) GLOBAL_UNIT_ASSIGNED_CONTEXT ( ( #192, #91, #111 ) ) REPRESENTATION_CONTEXT ( 'NONE', 'WORKASPACE' ) );
#231 = DIRECTION ( 'NONE',  ( 1.000000000000000000, 0.000000000000000000, 0.000000000000000000 ) ) ;
#232 = CC_DESIGN_APPROVAL ( #211, ( #156 ) ) ;
#233 = ADVANCED_FACE ( 'NONE', ( #74 ), #215, .T. ) ;
#234 = CARTESIAN_POINT ( 'NONE',  ( 0.000000000000000000, 0.000000000000000000, 5.000000000000000000 ) ) ;
#235 = ORIENTED_EDGE ( 'NONE', *, *, #107, .T. ) ;
#236 = FACE_BOUND ( 'NONE', #227, .T. ) ;
#237 = AXIS2_PLACEMENT_3D ( 'NONE', #39, #114, #59 ) ;
#238 = ADVANCED_FACE ( 'NONE', ( #213 ), #38, .F. ) ;
#239 = CC_DESIGN_DATE_AND_TIME_ASSIGNMENT ( #175, #199, ( #71 ) ) ;
#240 = DIRECTION ( 'NONE',  ( 0.000000000000000000, 0.000000000000000000, 1.000000000000000000 ) ) ;
#241 = CALENDAR_DATE ( 2023, 12, 2 ) ;
#242 = PRODUCT ( 'e74f', 'e74f', '', ( #216 ) ) ;
#243 = MANIFOLD_SOLID_BREP ( 'Pøidat vysunutím3', #70 ) ;
#244 = AXIS2_PLACEMENT_3D ( 'NONE', #2, #240, #191 ) ;
#245 = CARTESIAN_POINT ( 'NONE',  ( 0.000000000000000000, 0.000000000000000000, 5.000000000000000000 ) ) ;
#246 = PERSON_AND_ORGANIZATION ( #195, #218 ) ;
#247 = APPROVAL_ROLE ( '' ) ;
#248 = ORIENTED_EDGE ( 'NONE', *, *, #197, .F. ) ;
#249 = DIRECTION ( 'NONE',  ( 0.000000000000000000, 0.000000000000000000, 1.000000000000000000 ) ) ;
#250 = EDGE_LOOP ( 'NONE', ( #27, #198 ) ) ;
#251 = AXIS2_PLACEMENT_3D ( 'NONE', #94, #148, #170 ) ;
#252 = COORDINATED_UNIVERSAL_TIME_OFFSET ( 1, 0, .AHEAD. ) ;
#253 = VECTOR ( 'NONE', #109, 1000.000000000000000 ) ;
#254 = CC_DESIGN_APPROVAL ( #125, ( #15 ) ) ;
#255 = AXIS2_PLACEMENT_3D ( 'NONE', #43, #117, #225 ) ;
ENDSEC;
END-ISO-10303-21;
