ISO-10303-21;
HEADER;
FILE_DESCRIPTION (( 'STEP AP203' ),
    '1' );
FILE_NAME ('880f.STEP',
    '2023-02-12T11:27:10',
    ( '' ),
    ( '' ),
    'SwSTEP 2.0',
    'SolidWorks 2019',
    '' );
FILE_SCHEMA (( 'CONFIG_CONTROL_DESIGN' ));
ENDSEC;

DATA;
#1 = DIRECTION ( 'NONE',  ( 1.000000000000000000, 0.000000000000000000, 0.000000000000000000 ) ) ;
#2 = ORGANIZATION ( 'NEURÈENÝ', 'NEURÈENÝ', '' ) ;
#3 = ADVANCED_BREP_SHAPE_REPRESENTATION ( '880f', ( #239, #134 ), #82 ) ;
#4 = EDGE_CURVE ( 'NONE', #176, #6, #188, .T. ) ;
#5 = DIRECTION ( 'NONE',  ( 0.000000000000000000, 0.000000000000000000, 1.000000000000000000 ) ) ;
#6 = VERTEX_POINT ( 'NONE', #36 ) ;
#7 = PERSON_AND_ORGANIZATION ( #192, #2 ) ;
#8 = LOCAL_TIME ( 12, 27, 10.00000000000000000, #138 ) ;
#9 = ORIENTED_EDGE ( 'NONE', *, *, #60, .T. ) ;
#10 = PERSON_AND_ORGANIZATION_ROLE ( 'design_owner' ) ;
#11 = AXIS2_PLACEMENT_3D ( 'NONE', #250, #205, #61 ) ;
#12 = ORIENTED_EDGE ( 'NONE', *, *, #128, .F. ) ;
#13 = CARTESIAN_POINT ( 'NONE',  ( 8.000000000000000000, 9.797174393178825657E-16, 5.000000000000000000 ) ) ;
#14 = CALENDAR_DATE ( 2023, 12, 2 ) ;
#15 = DIRECTION ( 'NONE',  ( 0.000000000000000000, 0.000000000000000000, 1.000000000000000000 ) ) ;
#16 = EDGE_LOOP ( 'NONE', ( #55, #34 ) ) ;
#17 = CARTESIAN_POINT ( 'NONE',  ( 0.000000000000000000, 0.000000000000000000, 0.000000000000000000 ) ) ;
#18 = PRODUCT ( '880f', '880f', '', ( #252 ) ) ;
#19 = LOCAL_TIME ( 12, 27, 10.00000000000000000, #214 ) ;
#20 = FACE_OUTER_BOUND ( 'NONE', #185, .T. ) ;
#21 = AXIS2_PLACEMENT_3D ( 'NONE', #100, #136, #222 ) ;
#22 = EDGE_CURVE ( 'NONE', #207, #158, #86, .T. ) ;
#23 = CC_DESIGN_APPROVAL ( #40, ( #237 ) ) ;
#24 = ORIENTED_EDGE ( 'NONE', *, *, #235, .F. ) ;
#25 = CARTESIAN_POINT ( 'NONE',  ( 0.000000000000000000, 0.000000000000000000, 0.000000000000000000 ) ) ;
#26 = VECTOR ( 'NONE', #110, 1000.000000000000000 ) ;
#27 = DIRECTION ( 'NONE',  ( -1.000000000000000000, 0.000000000000000000, 0.000000000000000000 ) ) ;
#28 = EDGE_LOOP ( 'NONE', ( #154, #164, #62, #98 ) ) ;
#29 = APPROVAL_ROLE ( '' ) ;
#30 = LINE ( 'NONE', #203, #152 ) ;
#31 = APPROVAL_ROLE ( '' ) ;
#32 = APPROVAL_PERSON_ORGANIZATION ( #71, #101, #141 ) ;
#33 = VERTEX_POINT ( 'NONE', #140 ) ;
#34 = ORIENTED_EDGE ( 'NONE', *, *, #79, .T. ) ;
#35 = CC_DESIGN_DATE_AND_TIME_ASSIGNMENT ( #52, #119, ( #127 ) ) ;
#36 = CARTESIAN_POINT ( 'NONE',  ( -8.000000000000000000, 0.000000000000000000, 0.000000000000000000 ) ) ;
#37 = APPROVAL_DATE_TIME ( #190, #40 ) ;
#38 = APPLICATION_CONTEXT ( 'configuration controlled 3d designs of mechanical parts and assemblies' ) ;
#39 = DIRECTION ( 'NONE',  ( 1.000000000000000000, 0.000000000000000000, 0.000000000000000000 ) ) ;
#40 = APPROVAL ( #144, 'NEURÈENÝ' ) ;
#41 = CARTESIAN_POINT ( 'NONE',  ( 5.000000000000000888, 6.123233995736767268E-16, 5.000000000000000000 ) ) ;
#42 = EDGE_LOOP ( 'NONE', ( #251, #166 ) ) ;
#43 = LINE ( 'NONE', #255, #85 ) ;
#44 =( LENGTH_UNIT ( ) NAMED_UNIT ( * ) SI_UNIT ( .MILLI., .METRE. ) );
#45 = ADVANCED_FACE ( 'NONE', ( #72 ), #112, .F. ) ;
#46 = DIRECTION ( 'NONE',  ( -0.000000000000000000, -0.000000000000000000, -1.000000000000000000 ) ) ;
#47 = CIRCLE ( 'NONE', #186, 5.000000000000000888 ) ;
#48 = FACE_BOUND ( 'NONE', #209, .T. ) ;
#49 = ADVANCED_FACE ( 'NONE', ( #165 ), #70, .T. ) ;
#50 = DIRECTION ( 'NONE',  ( -0.000000000000000000, -0.000000000000000000, -1.000000000000000000 ) ) ;
#51 = DIRECTION ( 'NONE',  ( 1.000000000000000000, 0.000000000000000000, -0.000000000000000000 ) ) ;
#52 = DATE_AND_TIME ( #56, #19 ) ;
#53 = CIRCLE ( 'NONE', #245, 5.000000000000000888 ) ;
#54 = APPROVAL ( #121, 'NEURÈENÝ' ) ;
#55 = ORIENTED_EDGE ( 'NONE', *, *, #90, .T. ) ;
#56 = CALENDAR_DATE ( 2023, 12, 2 ) ;
#57 = ORIENTED_EDGE ( 'NONE', *, *, #75, .F. ) ;
#58 = CALENDAR_DATE ( 2023, 12, 2 ) ;
#59 = VERTEX_POINT ( 'NONE', #206 ) ;
#60 = EDGE_CURVE ( 'NONE', #59, #124, #30, .T. ) ;
#61 = DIRECTION ( 'NONE',  ( 1.000000000000000000, 0.000000000000000000, 0.000000000000000000 ) ) ;
#62 = ORIENTED_EDGE ( 'NONE', *, *, #109, .T. ) ;
#63 = PERSON_AND_ORGANIZATION ( #192, #2 ) ;
#64 = CIRCLE ( 'NONE', #150, 8.000000000000000000 ) ;
#65 = CC_DESIGN_DATE_AND_TIME_ASSIGNMENT ( #139, #123, ( #237 ) ) ;
#66 = CC_DESIGN_SECURITY_CLASSIFICATION ( #127, ( #243 ) ) ;
#67 = DIRECTION ( 'NONE',  ( 0.000000000000000000, 0.000000000000000000, 1.000000000000000000 ) ) ;
#68 = AXIS2_PLACEMENT_3D ( 'NONE', #228, #137, #51 ) ;
#69 = CARTESIAN_POINT ( 'NONE',  ( 0.000000000000000000, 0.000000000000000000, 5.000000000000000000 ) ) ;
#70 = PLANE ( 'NONE',  #68 ) ;
#71 = PERSON_AND_ORGANIZATION ( #192, #2 ) ;
#72 = FACE_OUTER_BOUND ( 'NONE', #42, .T. ) ;
#73 = PERSON_AND_ORGANIZATION ( #192, #2 ) ;
#74 = PERSON_AND_ORGANIZATION ( #192, #2 ) ;
#75 = EDGE_CURVE ( 'NONE', #124, #161, #53, .T. ) ;
#76 = ORIENTED_EDGE ( 'NONE', *, *, #22, .F. ) ;
#77 = PERSON_AND_ORGANIZATION ( #192, #2 ) ;
#78 = EDGE_LOOP ( 'NONE', ( #113, #223 ) ) ;
#79 = EDGE_CURVE ( 'NONE', #207, #176, #117, .T. ) ;
#80 = AXIS2_PLACEMENT_3D ( 'NONE', #131, #196, #234 ) ;
#81 = DIRECTION ( 'NONE',  ( 0.000000000000000000, 0.000000000000000000, 1.000000000000000000 ) ) ;
#82 =( GEOMETRIC_REPRESENTATION_CONTEXT ( 3 ) GLOBAL_UNCERTAINTY_ASSIGNED_CONTEXT ( ( #126 ) ) GLOBAL_UNIT_ASSIGNED_CONTEXT ( ( #44, #129, #200 ) ) REPRESENTATION_CONTEXT ( 'NONE', 'WORKASPACE' ) );
#83 = DIRECTION ( 'NONE',  ( -1.000000000000000000, 0.000000000000000000, 0.000000000000000000 ) ) ;
#84 = CC_DESIGN_PERSON_AND_ORGANIZATION_ASSIGNMENT ( #73, #163, ( #127 ) ) ;
#85 = VECTOR ( 'NONE', #46, 1000.000000000000000 ) ;
#86 = LINE ( 'NONE', #13, #95 ) ;
#87 = COORDINATED_UNIVERSAL_TIME_OFFSET ( 1, 0, .AHEAD. ) ;
#88 = EDGE_LOOP ( 'NONE', ( #12, #9, #183, #230 ) ) ;
#89 = APPLICATION_PROTOCOL_DEFINITION ( 'international standard', 'config_control_design', 1994, #38 ) ;
#90 = EDGE_CURVE ( 'NONE', #176, #207, #177, .T. ) ;
#91 = DIRECTION ( 'NONE',  ( 1.000000000000000000, 0.000000000000000000, -0.000000000000000000 ) ) ;
#92 = AXIS2_PLACEMENT_3D ( 'NONE', #233, #81, #195 ) ;
#93 = DIRECTION ( 'NONE',  ( 0.000000000000000000, 0.000000000000000000, 1.000000000000000000 ) ) ;
#94 = ADVANCED_FACE ( 'NONE', ( #142 ), #212, .T. ) ;
#95 = VECTOR ( 'NONE', #143, 1000.000000000000000 ) ;
#96 = CC_DESIGN_PERSON_AND_ORGANIZATION_ASSIGNMENT ( #7, #246, ( #237 ) ) ;
#97 = CARTESIAN_POINT ( 'NONE',  ( 0.000000000000000000, 0.000000000000000000, 5.000000000000000000 ) ) ;
#98 = ORIENTED_EDGE ( 'NONE', *, *, #4, .F. ) ;
#99 = DIRECTION ( 'NONE',  ( 1.000000000000000000, 0.000000000000000000, 0.000000000000000000 ) ) ;
#100 = CARTESIAN_POINT ( 'NONE',  ( 0.000000000000000000, 0.000000000000000000, 315.0000000000000000 ) ) ;
#101 = APPROVAL ( #247, 'NEURÈENÝ' ) ;
#102 = CYLINDRICAL_SURFACE ( 'NONE', #130, 5.000000000000000888 ) ;
#103 = CARTESIAN_POINT ( 'NONE',  ( 0.000000000000000000, 0.000000000000000000, 0.000000000000000000 ) ) ;
#104 = ORIENTED_EDGE ( 'NONE', *, *, #254, .T. ) ;
#105 = AXIS2_PLACEMENT_3D ( 'NONE', #174, #67, #236 ) ;
#106 = CYLINDRICAL_SURFACE ( 'NONE', #210, 8.000000000000000000 ) ;
#107 = ADVANCED_FACE ( 'NONE', ( #175 ), #106, .T. ) ;
#108 = DATE_AND_TIME ( #184, #232 ) ;
#109 = EDGE_CURVE ( 'NONE', #158, #6, #64, .T. ) ;
#110 = DIRECTION ( 'NONE',  ( -0.000000000000000000, -0.000000000000000000, -1.000000000000000000 ) ) ;
#111 = COORDINATED_UNIVERSAL_TIME_OFFSET ( 1, 0, .AHEAD. ) ;
#112 = PLANE ( 'NONE',  #170 ) ;
#113 = ORIENTED_EDGE ( 'NONE', *, *, #235, .T. ) ;
#114 = DIRECTION ( 'NONE',  ( 1.000000000000000000, 0.000000000000000000, 0.000000000000000000 ) ) ;
#115 = CC_DESIGN_APPROVAL ( #54, ( #127 ) ) ;
#116 = FACE_OUTER_BOUND ( 'NONE', #28, .T. ) ;
#117 = CIRCLE ( 'NONE', #92, 8.000000000000000000 ) ;
#118 = CARTESIAN_POINT ( 'NONE',  ( 8.000000000000000000, 9.797174393178825657E-16, 0.000000000000000000 ) ) ;
#119 = DATE_TIME_ROLE ( 'classification_date' ) ;
#120 = CARTESIAN_POINT ( 'NONE',  ( -8.000000000000000000, 0.000000000000000000, 5.000000000000000000 ) ) ;
#121 = APPROVAL_STATUS ( 'not_yet_approved' ) ;
#122 = CIRCLE ( 'NONE', #146, 8.000000000000000000 ) ;
#123 = DATE_TIME_ROLE ( 'creation_date' ) ;
#124 = VERTEX_POINT ( 'NONE', #41 ) ;
#125 = SECURITY_CLASSIFICATION_LEVEL ( 'unclassified' ) ;
#126 = UNCERTAINTY_MEASURE_WITH_UNIT (LENGTH_MEASURE( 1.000000000000000082E-05 ), #44, 'distance_accuracy_value', 'NONE');
#127 = SECURITY_CLASSIFICATION ( '', '', #125 ) ;
#128 = EDGE_CURVE ( 'NONE', #59, #33, #47, .T. ) ;
#129 =( NAMED_UNIT ( * ) PLANE_ANGLE_UNIT ( ) SI_UNIT ( $, .RADIAN. ) );
#130 = AXIS2_PLACEMENT_3D ( 'NONE', #201, #202, #83 ) ;
#131 = CARTESIAN_POINT ( 'NONE',  ( 0.000000000000000000, 0.000000000000000000, 5.000000000000000000 ) ) ;
#132 = CLOSED_SHELL ( 'NONE', ( #94, #148, #107, #167, #45, #187, #49 ) ) ;
#133 = CARTESIAN_POINT ( 'NONE',  ( 0.000000000000000000, 0.000000000000000000, 315.0000000000000000 ) ) ;
#134 = AXIS2_PLACEMENT_3D ( 'NONE', #25, #178, #204 ) ;
#135 = PRODUCT_DEFINITION_SHAPE ( 'NONE', 'NONE',  #237 ) ;
#136 = DIRECTION ( 'NONE',  ( -0.000000000000000000, -0.000000000000000000, -1.000000000000000000 ) ) ;
#137 = DIRECTION ( 'NONE',  ( 0.000000000000000000, 0.000000000000000000, 1.000000000000000000 ) ) ;
#138 = COORDINATED_UNIVERSAL_TIME_OFFSET ( 1, 0, .AHEAD. ) ;
#139 = DATE_AND_TIME ( #157, #147 ) ;
#140 = CARTESIAN_POINT ( 'NONE',  ( -5.000000000000000888, 0.000000000000000000, 315.0000000000000000 ) ) ;
#141 = APPROVAL_ROLE ( '' ) ;
#142 = FACE_OUTER_BOUND ( 'NONE', #88, .T. ) ;
#143 = DIRECTION ( 'NONE',  ( -0.000000000000000000, -0.000000000000000000, -1.000000000000000000 ) ) ;
#144 = APPROVAL_STATUS ( 'not_yet_approved' ) ;
#145 = CARTESIAN_POINT ( 'NONE',  ( 0.000000000000000000, 0.000000000000000000, 315.0000000000000000 ) ) ;
#146 = AXIS2_PLACEMENT_3D ( 'NONE', #17, #93, #99 ) ;
#147 = LOCAL_TIME ( 12, 27, 10.00000000000000000, #87 ) ;
#148 = ADVANCED_FACE ( 'NONE', ( #116 ), #194, .T. ) ;
#149 = EDGE_CURVE ( 'NONE', #6, #158, #122, .T. ) ;
#150 = AXIS2_PLACEMENT_3D ( 'NONE', #103, #179, #191 ) ;
#151 = AXIS2_PLACEMENT_3D ( 'NONE', #133, #5, #1 ) ;
#152 = VECTOR ( 'NONE', #181, 1000.000000000000000 ) ;
#153 = DIRECTION ( 'NONE',  ( 0.000000000000000000, 0.000000000000000000, 1.000000000000000000 ) ) ;
#154 = ORIENTED_EDGE ( 'NONE', *, *, #79, .F. ) ;
#155 = CIRCLE ( 'NONE', #217, 5.000000000000000888 ) ;
#156 = APPLICATION_PROTOCOL_DEFINITION ( 'international standard', 'config_control_design', 1994, #253 ) ;
#157 = CALENDAR_DATE ( 2023, 12, 2 ) ;
#158 = VERTEX_POINT ( 'NONE', #118 ) ;
#159 = APPROVAL_DATE_TIME ( #224, #101 ) ;
#160 = PERSON_AND_ORGANIZATION ( #192, #2 ) ;
#161 = VERTEX_POINT ( 'NONE', #241 ) ;
#162 = CC_DESIGN_APPROVAL ( #101, ( #243 ) ) ;
#163 = PERSON_AND_ORGANIZATION_ROLE ( 'classification_officer' ) ;
#164 = ORIENTED_EDGE ( 'NONE', *, *, #22, .T. ) ;
#165 = FACE_OUTER_BOUND ( 'NONE', #78, .T. ) ;
#166 = ORIENTED_EDGE ( 'NONE', *, *, #109, .F. ) ;
#167 = ADVANCED_FACE ( 'NONE', ( #48, #219 ), #220, .T. ) ;
#168 = DIRECTION ( 'NONE',  ( 0.000000000000000000, 0.000000000000000000, 1.000000000000000000 ) ) ;
#169 = APPROVAL_PERSON_ORGANIZATION ( #74, #54, #29 ) ;
#170 = AXIS2_PLACEMENT_3D ( 'NONE', #189, #15, #91 ) ;
#171 = ORIENTED_EDGE ( 'NONE', *, *, #4, .T. ) ;
#172 = CARTESIAN_POINT ( 'NONE',  ( 8.000000000000000000, 9.797174393178825657E-16, 5.000000000000000000 ) ) ;
#173 = CC_DESIGN_PERSON_AND_ORGANIZATION_ASSIGNMENT ( #77, #226, ( #243 ) ) ;
#174 = CARTESIAN_POINT ( 'NONE',  ( 0.000000000000000000, 0.000000000000000000, 5.000000000000000000 ) ) ;
#175 = FACE_OUTER_BOUND ( 'NONE', #193, .T. ) ;
#176 = VERTEX_POINT ( 'NONE', #198 ) ;
#177 = CIRCLE ( 'NONE', #11, 8.000000000000000000 ) ;
#178 = DIRECTION ( 'NONE',  ( 0.000000000000000000, 0.000000000000000000, 1.000000000000000000 ) ) ;
#179 = DIRECTION ( 'NONE',  ( 0.000000000000000000, 0.000000000000000000, 1.000000000000000000 ) ) ;
#180 = PERSON_AND_ORGANIZATION_ROLE ( 'design_supplier' ) ;
#181 = DIRECTION ( 'NONE',  ( -0.000000000000000000, -0.000000000000000000, -1.000000000000000000 ) ) ;
#182 = APPROVAL_DATE_TIME ( #108, #54 ) ;
#183 = ORIENTED_EDGE ( 'NONE', *, *, #75, .T. ) ;
#184 = CALENDAR_DATE ( 2023, 12, 2 ) ;
#185 = EDGE_LOOP ( 'NONE', ( #240, #24, #104, #244 ) ) ;
#186 = AXIS2_PLACEMENT_3D ( 'NONE', #145, #227, #114 ) ;
#187 = ADVANCED_FACE ( 'NONE', ( #20 ), #102, .T. ) ;
#188 = LINE ( 'NONE', #120, #26 ) ;
#189 = CARTESIAN_POINT ( 'NONE',  ( 0.000000000000000000, 0.000000000000000000, 0.000000000000000000 ) ) ;
#190 = DATE_AND_TIME ( #14, #215 ) ;
#191 = DIRECTION ( 'NONE',  ( 1.000000000000000000, 0.000000000000000000, 0.000000000000000000 ) ) ;
#192 = PERSON ( 'NEURÈENÝ', 'NEURÈENÝ', 'NEURÈENÝ', ('NEURÈENÝ'), ('NEURÈENÝ'), ('NEURÈENÝ') ) ;
#193 = EDGE_LOOP ( 'NONE', ( #76, #225, #171, #213 ) ) ;
#194 = CYLINDRICAL_SURFACE ( 'NONE', #80, 8.000000000000000000 ) ;
#195 = DIRECTION ( 'NONE',  ( 1.000000000000000000, 0.000000000000000000, 0.000000000000000000 ) ) ;
#196 = DIRECTION ( 'NONE',  ( -0.000000000000000000, -0.000000000000000000, -1.000000000000000000 ) ) ;
#197 = PRODUCT_RELATED_PRODUCT_CATEGORY ( 'detail', '', ( #18 ) ) ;
#198 = CARTESIAN_POINT ( 'NONE',  ( -8.000000000000000000, 0.000000000000000000, 5.000000000000000000 ) ) ;
#199 = EDGE_CURVE ( 'NONE', #161, #124, #155, .T. ) ;
#200 =( NAMED_UNIT ( * ) SI_UNIT ( $, .STERADIAN. ) SOLID_ANGLE_UNIT ( ) );
#201 = CARTESIAN_POINT ( 'NONE',  ( 0.000000000000000000, 0.000000000000000000, 315.0000000000000000 ) ) ;
#202 = DIRECTION ( 'NONE',  ( -0.000000000000000000, -0.000000000000000000, -1.000000000000000000 ) ) ;
#203 = CARTESIAN_POINT ( 'NONE',  ( 5.000000000000000888, 6.123233995736767268E-16, 315.0000000000000000 ) ) ;
#204 = DIRECTION ( 'NONE',  ( 1.000000000000000000, 0.000000000000000000, 0.000000000000000000 ) ) ;
#205 = DIRECTION ( 'NONE',  ( 0.000000000000000000, 0.000000000000000000, 1.000000000000000000 ) ) ;
#206 = CARTESIAN_POINT ( 'NONE',  ( 5.000000000000000888, 6.123233995736767268E-16, 315.0000000000000000 ) ) ;
#207 = VERTEX_POINT ( 'NONE', #172 ) ;
#208 = PERSON_AND_ORGANIZATION ( #192, #2 ) ;
#209 = EDGE_LOOP ( 'NONE', ( #248, #57 ) ) ;
#210 = AXIS2_PLACEMENT_3D ( 'NONE', #69, #50, #27 ) ;
#211 = DESIGN_CONTEXT ( 'detailed design', #38, 'design' ) ;
#212 = CYLINDRICAL_SURFACE ( 'NONE', #21, 5.000000000000000888 ) ;
#213 = ORIENTED_EDGE ( 'NONE', *, *, #149, .T. ) ;
#214 = COORDINATED_UNIVERSAL_TIME_OFFSET ( 1, 0, .AHEAD. ) ;
#215 = LOCAL_TIME ( 12, 27, 10.00000000000000000, #231 ) ;
#216 = CARTESIAN_POINT ( 'NONE',  ( 0.000000000000000000, 0.000000000000000000, 5.000000000000000000 ) ) ;
#217 = AXIS2_PLACEMENT_3D ( 'NONE', #97, #153, #238 ) ;
#218 = CC_DESIGN_PERSON_AND_ORGANIZATION_ASSIGNMENT ( #160, #10, ( #18 ) ) ;
#219 = FACE_OUTER_BOUND ( 'NONE', #16, .T. ) ;
#220 = PLANE ( 'NONE',  #105 ) ;
#221 = APPROVAL_PERSON_ORGANIZATION ( #63, #40, #31 ) ;
#222 = DIRECTION ( 'NONE',  ( -1.000000000000000000, 0.000000000000000000, 0.000000000000000000 ) ) ;
#223 = ORIENTED_EDGE ( 'NONE', *, *, #128, .T. ) ;
#224 = DATE_AND_TIME ( #58, #8 ) ;
#225 = ORIENTED_EDGE ( 'NONE', *, *, #90, .F. ) ;
#226 = PERSON_AND_ORGANIZATION_ROLE ( 'creator' ) ;
#227 = DIRECTION ( 'NONE',  ( 0.000000000000000000, 0.000000000000000000, 1.000000000000000000 ) ) ;
#228 = CARTESIAN_POINT ( 'NONE',  ( 0.000000000000000000, 0.000000000000000000, 315.0000000000000000 ) ) ;
#229 = SHAPE_DEFINITION_REPRESENTATION ( #135, #3 ) ;
#230 = ORIENTED_EDGE ( 'NONE', *, *, #254, .F. ) ;
#231 = COORDINATED_UNIVERSAL_TIME_OFFSET ( 1, 0, .AHEAD. ) ;
#232 = LOCAL_TIME ( 12, 27, 10.00000000000000000, #111 ) ;
#233 = CARTESIAN_POINT ( 'NONE',  ( 0.000000000000000000, 0.000000000000000000, 5.000000000000000000 ) ) ;
#234 = DIRECTION ( 'NONE',  ( -1.000000000000000000, 0.000000000000000000, 0.000000000000000000 ) ) ;
#235 = EDGE_CURVE ( 'NONE', #33, #59, #249, .T. ) ;
#236 = DIRECTION ( 'NONE',  ( 1.000000000000000000, 0.000000000000000000, -0.000000000000000000 ) ) ;
#237 = PRODUCT_DEFINITION ( 'NEZNÁMÝ', '', #243, #211 ) ;
#238 = DIRECTION ( 'NONE',  ( 1.000000000000000000, 0.000000000000000000, 0.000000000000000000 ) ) ;
#239 = MANIFOLD_SOLID_BREP ( 'Pøidat vysunutím3', #132 ) ;
#240 = ORIENTED_EDGE ( 'NONE', *, *, #60, .F. ) ;
#241 = CARTESIAN_POINT ( 'NONE',  ( -5.000000000000000888, 0.000000000000000000, 5.000000000000000000 ) ) ;
#242 = CC_DESIGN_PERSON_AND_ORGANIZATION_ASSIGNMENT ( #208, #180, ( #243 ) ) ;
#243 = PRODUCT_DEFINITION_FORMATION_WITH_SPECIFIED_SOURCE ( 'LIBOVOLNÝ', '', #18, .NOT_KNOWN. ) ;
#244 = ORIENTED_EDGE ( 'NONE', *, *, #199, .T. ) ;
#245 = AXIS2_PLACEMENT_3D ( 'NONE', #216, #168, #39 ) ;
#246 = PERSON_AND_ORGANIZATION_ROLE ( 'creator' ) ;
#247 = APPROVAL_STATUS ( 'not_yet_approved' ) ;
#248 = ORIENTED_EDGE ( 'NONE', *, *, #199, .F. ) ;
#249 = CIRCLE ( 'NONE', #151, 5.000000000000000888 ) ;
#250 = CARTESIAN_POINT ( 'NONE',  ( 0.000000000000000000, 0.000000000000000000, 5.000000000000000000 ) ) ;
#251 = ORIENTED_EDGE ( 'NONE', *, *, #149, .F. ) ;
#252 = MECHANICAL_CONTEXT ( 'NONE', #253, 'mechanical' ) ;
#253 = APPLICATION_CONTEXT ( 'configuration controlled 3d designs of mechanical parts and assemblies' ) ;
#254 = EDGE_CURVE ( 'NONE', #33, #161, #43, .T. ) ;
#255 = CARTESIAN_POINT ( 'NONE',  ( -5.000000000000000888, 0.000000000000000000, 315.0000000000000000 ) ) ;
ENDSEC;
END-ISO-10303-21;
