ISO-10303-21;
HEADER;
FILE_DESCRIPTION (( 'STEP AP203' ),
    '1' );
FILE_NAME ('d17b.STEP',
    '2022-07-07T10:04:21',
    ( '' ),
    ( '' ),
    'SwSTEP 2.0',
    'SolidWorks 2019',
    '' );
FILE_SCHEMA (( 'CONFIG_CONTROL_DESIGN' ));
ENDSEC;

DATA;
#1 = CARTESIAN_POINT ( 'NONE',  ( -3.750000000000000000, 0.000000000000000000, 805.0000000000000000 ) ) ;
#2 = ADVANCED_FACE ( 'NONE', ( #69 ), #164, .T. ) ;
#3 = LINE ( 'NONE', #193, #195 ) ;
#4 = APPROVAL_STATUS ( 'not_yet_approved' ) ;
#5 = PERSON_AND_ORGANIZATION ( #211, #222 ) ;
#6 = CIRCLE ( 'NONE', #207, 3.949999999999999734 ) ;
#7 = CIRCLE ( 'NONE', #294, 3.949999999999999734 ) ;
#8 = CALENDAR_DATE ( 2022, 7, 7 ) ;
#9 = VERTEX_POINT ( 'NONE', #187 ) ;
#10 =( NAMED_UNIT ( * ) SI_UNIT ( $, .STERADIAN. ) SOLID_ANGLE_UNIT ( ) );
#11 = ORIENTED_EDGE ( 'NONE', *, *, #65, .T. ) ;
#12 = EDGE_CURVE ( 'NONE', #155, #22, #201, .T. ) ;
#13 = CIRCLE ( 'NONE', #50, 6.000000000000000888 ) ;
#14 = ORIENTED_EDGE ( 'NONE', *, *, #112, .T. ) ;
#15 = EDGE_LOOP ( 'NONE', ( #106, #161, #215, #206 ) ) ;
#16 = CARTESIAN_POINT ( 'NONE',  ( 0.000000000000000000, 0.000000000000000000, 5.199999999999982414 ) ) ;
#17 = TOROIDAL_SURFACE ( 'NONE', #39, 3.949999999999999734, 0.2000000000000000111 ) ;
#18 = APPROVAL_DATE_TIME ( #295, #119 ) ;
#19 = ORIENTED_EDGE ( 'NONE', *, *, #44, .T. ) ;
#20 = CARTESIAN_POINT ( 'NONE',  ( 0.000000000000000000, 0.000000000000000000, 805.0000000000000000 ) ) ;
#21 = APPLICATION_CONTEXT ( 'configuration controlled 3d designs of mechanical parts and assemblies' ) ;
#22 = VERTEX_POINT ( 'NONE', #66 ) ;
#23 = ADVANCED_BREP_SHAPE_REPRESENTATION ( 'd17b', ( #139, #258 ), #160 ) ;
#24 = AXIS2_PLACEMENT_3D ( 'NONE', #16, #41, #89 ) ;
#25 = CARTESIAN_POINT ( 'NONE',  ( 3.750000000000000000, 4.592425496802573972E-16, 5.199999999999982414 ) ) ;
#26 = APPROVAL ( #100, 'NEURÈENÝ' ) ;
#27 = DIRECTION ( 'NONE',  ( 0.000000000000000000, 0.000000000000000000, 1.000000000000000000 ) ) ;
#28 = CARTESIAN_POINT ( 'NONE',  ( 0.000000000000000000, 0.000000000000000000, 0.000000000000000000 ) ) ;
#29 = DIRECTION ( 'NONE',  ( 0.000000000000000000, 0.000000000000000000, 1.000000000000000000 ) ) ;
#30 = CC_DESIGN_PERSON_AND_ORGANIZATION_ASSIGNMENT ( #5, #202, ( #303 ) ) ;
#31 = DIRECTION ( 'NONE',  ( 1.000000000000000000, 0.000000000000000000, 0.000000000000000000 ) ) ;
#32 = PERSON_AND_ORGANIZATION_ROLE ( 'creator' ) ;
#33 = CIRCLE ( 'NONE', #152, 3.750000000000000000 ) ;
#34 = VERTEX_POINT ( 'NONE', #300 ) ;
#35 = EDGE_CURVE ( 'NONE', #22, #155, #184, .T. ) ;
#36 = APPROVAL_PERSON_ORGANIZATION ( #154, #119, #181 ) ;
#37 = ORIENTED_EDGE ( 'NONE', *, *, #44, .F. ) ;
#38 = PERSON_AND_ORGANIZATION ( #211, #222 ) ;
#39 = AXIS2_PLACEMENT_3D ( 'NONE', #219, #27, #169 ) ;
#40 = CYLINDRICAL_SURFACE ( 'NONE', #282, 6.000000000000000888 ) ;
#41 = DIRECTION ( 'NONE',  ( 0.000000000000000000, 0.000000000000000000, 1.000000000000000000 ) ) ;
#42 = CARTESIAN_POINT ( 'NONE',  ( 3.949999999999999734, 0.000000000000000000, 5.199999999999982414 ) ) ;
#43 = ORIENTED_EDGE ( 'NONE', *, *, #47, .F. ) ;
#44 = EDGE_CURVE ( 'NONE', #34, #155, #114, .T. ) ;
#45 = ORIENTED_EDGE ( 'NONE', *, *, #259, .F. ) ;
#46 = PRODUCT_DEFINITION_SHAPE ( 'NONE', 'NONE',  #272 ) ;
#47 = EDGE_CURVE ( 'NONE', #247, #102, #6, .T. ) ;
#48 = DIRECTION ( 'NONE',  ( 1.000000000000000000, 0.000000000000000000, 0.000000000000000000 ) ) ;
#49 = EDGE_CURVE ( 'NONE', #22, #247, #54, .T. ) ;
#50 = AXIS2_PLACEMENT_3D ( 'NONE', #28, #76, #122 ) ;
#51 = CARTESIAN_POINT ( 'NONE',  ( 0.000000000000000000, 0.000000000000000000, 5.000000000000000000 ) ) ;
#52 = FACE_OUTER_BOUND ( 'NONE', #176, .T. ) ;
#53 = DIRECTION ( 'NONE',  ( -0.000000000000000000, -0.000000000000000000, -1.000000000000000000 ) ) ;
#54 = CIRCLE ( 'NONE', #121, 0.1999999999999996503 ) ;
#55 = PLANE ( 'NONE',  #138 ) ;
#56 =( LENGTH_UNIT ( ) NAMED_UNIT ( * ) SI_UNIT ( .MILLI., .METRE. ) );
#57 = APPLICATION_PROTOCOL_DEFINITION ( 'international standard', 'config_control_design', 1994, #162 ) ;
#58 = APPROVAL ( #4, 'NEURÈENÝ' ) ;
#59 = EDGE_LOOP ( 'NONE', ( #111, #166 ) ) ;
#60 = DATE_TIME_ROLE ( 'creation_date' ) ;
#61 = DESIGN_CONTEXT ( 'detailed design', #21, 'design' ) ;
#62 = ORIENTED_EDGE ( 'NONE', *, *, #12, .F. ) ;
#63 = CYLINDRICAL_SURFACE ( 'NONE', #126, 3.750000000000000000 ) ;
#64 = CARTESIAN_POINT ( 'NONE',  ( 3.750000000000000000, 4.592425496802573972E-16, 805.0000000000000000 ) ) ;
#65 = EDGE_CURVE ( 'NONE', #155, #102, #231, .T. ) ;
#66 = CARTESIAN_POINT ( 'NONE',  ( -3.750000000000000000, 0.000000000000000000, 5.199999999999982414 ) ) ;
#67 = PRODUCT_RELATED_PRODUCT_CATEGORY ( 'detail', '', ( #290 ) ) ;
#68 = VERTEX_POINT ( 'NONE', #110 ) ;
#69 = FACE_OUTER_BOUND ( 'NONE', #80, .T. ) ;
#70 = DIRECTION ( 'NONE',  ( 0.000000000000000000, 0.000000000000000000, 1.000000000000000000 ) ) ;
#71 = CC_DESIGN_APPROVAL ( #119, ( #303 ) ) ;
#72 = DIRECTION ( 'NONE',  ( 1.000000000000000000, 0.000000000000000000, 0.000000000000000000 ) ) ;
#73 = CLOSED_SHELL ( 'NONE', ( #296, #2, #107, #96, #301, #117, #78, #281, #157 ) ) ;
#74 = CIRCLE ( 'NONE', #218, 3.750000000000000000 ) ;
#75 = PLANE ( 'NONE',  #299 ) ;
#76 = DIRECTION ( 'NONE',  ( 0.000000000000000000, 0.000000000000000000, 1.000000000000000000 ) ) ;
#77 = DIRECTION ( 'NONE',  ( 0.000000000000000000, 0.000000000000000000, 1.000000000000000000 ) ) ;
#78 = ADVANCED_FACE ( 'NONE', ( #213 ), #63, .T. ) ;
#79 = DATE_TIME_ROLE ( 'classification_date' ) ;
#80 = EDGE_LOOP ( 'NONE', ( #84, #19, #134, #156 ) ) ;
#81 = CALENDAR_DATE ( 2022, 7, 7 ) ;
#82 = LOCAL_TIME ( 12, 4, 21.00000000000000000, #175 ) ;
#83 = DIRECTION ( 'NONE',  ( 0.000000000000000000, 0.000000000000000000, 1.000000000000000000 ) ) ;
#84 = ORIENTED_EDGE ( 'NONE', *, *, #151, .F. ) ;
#85 = CC_DESIGN_PERSON_AND_ORGANIZATION_ASSIGNMENT ( #38, #32, ( #272 ) ) ;
#86 = APPROVAL_PERSON_ORGANIZATION ( #226, #58, #230 ) ;
#87 = DIRECTION ( 'NONE',  ( -1.000000000000000000, 1.224646799147353454E-16, 0.000000000000000000 ) ) ;
#88 = SHAPE_DEFINITION_REPRESENTATION ( #46, #23 ) ;
#89 = DIRECTION ( 'NONE',  ( 1.000000000000000000, 0.000000000000000000, 0.000000000000000000 ) ) ;
#90 = DIRECTION ( 'NONE',  ( 0.000000000000000000, -1.000000000000000000, 0.000000000000000000 ) ) ;
#91 = CYLINDRICAL_SURFACE ( 'NONE', #143, 6.000000000000000888 ) ;
#92 = DIRECTION ( 'NONE',  ( 1.000000000000000000, 0.000000000000000000, 0.000000000000000000 ) ) ;
#93 = AXIS2_PLACEMENT_3D ( 'NONE', #95, #305, #48 ) ;
#94 = DIRECTION ( 'NONE',  ( 1.000000000000000000, 0.000000000000000000, 0.000000000000000000 ) ) ;
#95 = CARTESIAN_POINT ( 'NONE',  ( 0.000000000000000000, 0.000000000000000000, 5.000000000000000000 ) ) ;
#96 = ADVANCED_FACE ( 'NONE', ( #186 ), #91, .T. ) ;
#97 = CARTESIAN_POINT ( 'NONE',  ( 0.000000000000000000, 0.000000000000000000, 0.000000000000000000 ) ) ;
#98 = FACE_OUTER_BOUND ( 'NONE', #255, .T. ) ;
#99 = PERSON_AND_ORGANIZATION_ROLE ( 'design_owner' ) ;
#100 = APPROVAL_STATUS ( 'not_yet_approved' ) ;
#101 = DATE_AND_TIME ( #131, #82 ) ;
#102 = VERTEX_POINT ( 'NONE', #252 ) ;
#103 = PERSON_AND_ORGANIZATION ( #211, #222 ) ;
#104 = ORIENTED_EDGE ( 'NONE', *, *, #141, .T. ) ;
#105 = COORDINATED_UNIVERSAL_TIME_OFFSET ( 1, 0, .AHEAD. ) ;
#106 = ORIENTED_EDGE ( 'NONE', *, *, #141, .F. ) ;
#107 = ADVANCED_FACE ( 'NONE', ( #113 ), #40, .T. ) ;
#108 = CC_DESIGN_SECURITY_CLASSIFICATION ( #303, ( #242 ) ) ;
#109 = ORIENTED_EDGE ( 'NONE', *, *, #151, .T. ) ;
#110 = CARTESIAN_POINT ( 'NONE',  ( 6.000000000000000888, 7.347880794884120722E-16, 0.000000000000000000 ) ) ;
#111 = ORIENTED_EDGE ( 'NONE', *, *, #233, .T. ) ;
#112 = EDGE_CURVE ( 'NONE', #9, #209, #276, .T. ) ;
#113 = FACE_OUTER_BOUND ( 'NONE', #15, .T. ) ;
#114 = LINE ( 'NONE', #64, #174 ) ;
#115 = CIRCLE ( 'NONE', #287, 6.000000000000000888 ) ;
#116 = FACE_OUTER_BOUND ( 'NONE', #269, .T. ) ;
#117 = ADVANCED_FACE ( 'NONE', ( #98 ), #278, .F. ) ;
#118 = LINE ( 'NONE', #147, #200 ) ;
#119 = APPROVAL ( #293, 'NEURÈENÝ' ) ;
#120 = FACE_OUTER_BOUND ( 'NONE', #227, .T. ) ;
#121 = AXIS2_PLACEMENT_3D ( 'NONE', #136, #236, #87 ) ;
#122 = DIRECTION ( 'NONE',  ( 1.000000000000000000, 0.000000000000000000, 0.000000000000000000 ) ) ;
#123 = DIRECTION ( 'NONE',  ( 1.000000000000000000, 0.000000000000000000, -0.000000000000000000 ) ) ;
#124 = DATE_AND_TIME ( #8, #265 ) ;
#125 = ORIENTED_EDGE ( 'NONE', *, *, #129, .T. ) ;
#126 = AXIS2_PLACEMENT_3D ( 'NONE', #20, #159, #235 ) ;
#127 = APPLICATION_PROTOCOL_DEFINITION ( 'international standard', 'config_control_design', 1994, #21 ) ;
#128 = ORIENTED_EDGE ( 'NONE', *, *, #49, .T. ) ;
#129 = EDGE_CURVE ( 'NONE', #189, #68, #13, .T. ) ;
#130 = DATE_AND_TIME ( #158, #165 ) ;
#131 = CALENDAR_DATE ( 2022, 7, 7 ) ;
#132 = ORIENTED_EDGE ( 'NONE', *, *, #146, .T. ) ;
#133 = VECTOR ( 'NONE', #238, 1000.000000000000000 ) ;
#134 = ORIENTED_EDGE ( 'NONE', *, *, #12, .T. ) ;
#135 = CC_DESIGN_PERSON_AND_ORGANIZATION_ASSIGNMENT ( #225, #286, ( #242 ) ) ;
#136 = CARTESIAN_POINT ( 'NONE',  ( -3.949999999999999734, 4.837354856632044071E-16, 5.199999999999982414 ) ) ;
#137 = ORIENTED_EDGE ( 'NONE', *, *, #168, .F. ) ;
#138 = AXIS2_PLACEMENT_3D ( 'NONE', #149, #29, #123 ) ;
#139 = MANIFOLD_SOLID_BREP ( 'Zaoblit1', #73 ) ;
#140 = ORIENTED_EDGE ( 'NONE', *, *, #177, .T. ) ;
#141 = EDGE_CURVE ( 'NONE', #209, #9, #264, .T. ) ;
#142 = DIRECTION ( 'NONE',  ( 1.000000000000000000, 0.000000000000000000, 0.000000000000000000 ) ) ;
#143 = AXIS2_PLACEMENT_3D ( 'NONE', #274, #250, #188 ) ;
#144 = DIRECTION ( 'NONE',  ( 1.000000000000000000, 0.000000000000000000, -0.000000000000000000 ) ) ;
#145 = DIRECTION ( 'NONE',  ( 0.000000000000000000, 0.000000000000000000, 1.000000000000000000 ) ) ;
#146 = EDGE_CURVE ( 'NONE', #9, #189, #241, .T. ) ;
#147 = CARTESIAN_POINT ( 'NONE',  ( -3.750000000000000000, 0.000000000000000000, 805.0000000000000000 ) ) ;
#148 = AXIS2_PLACEMENT_3D ( 'NONE', #306, #196, #144 ) ;
#149 = CARTESIAN_POINT ( 'NONE',  ( 0.000000000000000000, 0.000000000000000000, 5.000000000000000000 ) ) ;
#150 = ORIENTED_EDGE ( 'NONE', *, *, #233, .F. ) ;
#151 = EDGE_CURVE ( 'NONE', #34, #229, #33, .T. ) ;
#152 = AXIS2_PLACEMENT_3D ( 'NONE', #221, #70, #72 ) ;
#153 = CC_DESIGN_APPROVAL ( #26, ( #272 ) ) ;
#154 = PERSON_AND_ORGANIZATION ( #211, #222 ) ;
#155 = VERTEX_POINT ( 'NONE', #25 ) ;
#156 = ORIENTED_EDGE ( 'NONE', *, *, #177, .F. ) ;
#157 = ADVANCED_FACE ( 'NONE', ( #116 ), #17, .F. ) ;
#158 = CALENDAR_DATE ( 2022, 7, 7 ) ;
#159 = DIRECTION ( 'NONE',  ( -0.000000000000000000, -0.000000000000000000, -1.000000000000000000 ) ) ;
#160 =( GEOMETRIC_REPRESENTATION_CONTEXT ( 3 ) GLOBAL_UNCERTAINTY_ASSIGNED_CONTEXT ( ( #178 ) ) GLOBAL_UNIT_ASSIGNED_CONTEXT ( ( #56, #291, #10 ) ) REPRESENTATION_CONTEXT ( 'NONE', 'WORKASPACE' ) );
#161 = ORIENTED_EDGE ( 'NONE', *, *, #191, .T. ) ;
#162 = APPLICATION_CONTEXT ( 'configuration controlled 3d designs of mechanical parts and assemblies' ) ;
#163 = DIRECTION ( 'NONE',  ( -0.000000000000000000, -0.000000000000000000, -1.000000000000000000 ) ) ;
#164 = CYLINDRICAL_SURFACE ( 'NONE', #249, 3.750000000000000000 ) ;
#165 = LOCAL_TIME ( 12, 4, 21.00000000000000000, #224 ) ;
#166 = ORIENTED_EDGE ( 'NONE', *, *, #47, .T. ) ;
#167 = DIRECTION ( 'NONE',  ( -0.000000000000000000, -0.000000000000000000, -1.000000000000000000 ) ) ;
#168 = EDGE_CURVE ( 'NONE', #68, #189, #115, .T. ) ;
#169 = DIRECTION ( 'NONE',  ( 1.000000000000000000, 0.000000000000000000, 0.000000000000000000 ) ) ;
#170 = CARTESIAN_POINT ( 'NONE',  ( 0.000000000000000000, 0.000000000000000000, 805.0000000000000000 ) ) ;
#171 = CARTESIAN_POINT ( 'NONE',  ( -3.949999999999999734, 4.837354856632044071E-16, 4.999999999999991118 ) ) ;
#172 = LOCAL_TIME ( 12, 4, 21.00000000000000000, #266 ) ;
#173 = FACE_BOUND ( 'NONE', #59, .T. ) ;
#174 = VECTOR ( 'NONE', #163, 1000.000000000000000 ) ;
#175 = COORDINATED_UNIVERSAL_TIME_OFFSET ( 1, 0, .AHEAD. ) ;
#176 = EDGE_LOOP ( 'NONE', ( #302, #128, #150, #237 ) ) ;
#177 = EDGE_CURVE ( 'NONE', #229, #22, #118, .T. ) ;
#178 = UNCERTAINTY_MEASURE_WITH_UNIT (LENGTH_MEASURE( 1.000000000000000082E-05 ), #56, 'distance_accuracy_value', 'NONE');
#179 = SECURITY_CLASSIFICATION_LEVEL ( 'unclassified' ) ;
#180 = ORIENTED_EDGE ( 'NONE', *, *, #112, .F. ) ;
#181 = APPROVAL_ROLE ( '' ) ;
#182 = MECHANICAL_CONTEXT ( 'NONE', #162, 'mechanical' ) ;
#183 = DIRECTION ( 'NONE',  ( 0.000000000000000000, 0.000000000000000000, -1.000000000000000000 ) ) ;
#184 = CIRCLE ( 'NONE', #253, 3.750000000000000000 ) ;
#185 = APPROVAL_PERSON_ORGANIZATION ( #245, #26, #199 ) ;
#186 = FACE_OUTER_BOUND ( 'NONE', #232, .T. ) ;
#187 = CARTESIAN_POINT ( 'NONE',  ( -6.000000000000000888, 0.000000000000000000, 5.000000000000000000 ) ) ;
#188 = DIRECTION ( 'NONE',  ( -1.000000000000000000, 0.000000000000000000, 0.000000000000000000 ) ) ;
#189 = VERTEX_POINT ( 'NONE', #263 ) ;
#190 = DIRECTION ( 'NONE',  ( -0.000000000000000000, -0.000000000000000000, -1.000000000000000000 ) ) ;
#191 = EDGE_CURVE ( 'NONE', #209, #68, #3, .T. ) ;
#192 = CC_DESIGN_DATE_AND_TIME_ASSIGNMENT ( #130, #60, ( #272 ) ) ;
#193 = CARTESIAN_POINT ( 'NONE',  ( 6.000000000000000888, 7.347880794884120722E-16, 5.000000000000000000 ) ) ;
#194 = CARTESIAN_POINT ( 'NONE',  ( -6.000000000000000888, 0.000000000000000000, 5.000000000000000000 ) ) ;
#195 = VECTOR ( 'NONE', #53, 1000.000000000000000 ) ;
#196 = DIRECTION ( 'NONE',  ( 0.000000000000000000, 0.000000000000000000, 1.000000000000000000 ) ) ;
#197 = CC_DESIGN_PERSON_AND_ORGANIZATION_ASSIGNMENT ( #246, #99, ( #290 ) ) ;
#198 = DIRECTION ( 'NONE',  ( 1.000000000000000000, 0.000000000000000000, -0.000000000000000000 ) ) ;
#199 = APPROVAL_ROLE ( '' ) ;
#200 = VECTOR ( 'NONE', #167, 1000.000000000000000 ) ;
#201 = CIRCLE ( 'NONE', #24, 3.750000000000000000 ) ;
#202 = PERSON_AND_ORGANIZATION_ROLE ( 'classification_officer' ) ;
#203 = APPROVAL_DATE_TIME ( #124, #58 ) ;
#204 = EDGE_LOOP ( 'NONE', ( #277, #109 ) ) ;
#205 = CARTESIAN_POINT ( 'NONE',  ( 0.000000000000000000, 0.000000000000000000, 0.000000000000000000 ) ) ;
#206 = ORIENTED_EDGE ( 'NONE', *, *, #146, .F. ) ;
#207 = AXIS2_PLACEMENT_3D ( 'NONE', #217, #251, #254 ) ;
#208 = CALENDAR_DATE ( 2022, 7, 7 ) ;
#209 = VERTEX_POINT ( 'NONE', #257 ) ;
#210 = ORIENTED_EDGE ( 'NONE', *, *, #35, .T. ) ;
#211 = PERSON ( 'NEURÈENÝ', 'NEURÈENÝ', 'NEURÈENÝ', ('NEURÈENÝ'), ('NEURÈENÝ'), ('NEURÈENÝ') ) ;
#212 = CC_DESIGN_APPROVAL ( #58, ( #242 ) ) ;
#213 = FACE_OUTER_BOUND ( 'NONE', #289, .T. ) ;
#214 = DIRECTION ( 'NONE',  ( 0.000000000000000000, 0.000000000000000000, 1.000000000000000000 ) ) ;
#215 = ORIENTED_EDGE ( 'NONE', *, *, #168, .T. ) ;
#216 = CARTESIAN_POINT ( 'NONE',  ( 0.000000000000000000, 0.000000000000000000, 5.000000000000000000 ) ) ;
#217 = CARTESIAN_POINT ( 'NONE',  ( 0.000000000000000000, 0.000000000000000000, 5.000000000000000000 ) ) ;
#218 = AXIS2_PLACEMENT_3D ( 'NONE', #223, #262, #283 ) ;
#219 = CARTESIAN_POINT ( 'NONE',  ( 0.000000000000000000, 0.000000000000000000, 5.199999999999982414 ) ) ;
#220 = DIRECTION ( 'NONE',  ( -0.000000000000000000, -0.000000000000000000, -1.000000000000000000 ) ) ;
#221 = CARTESIAN_POINT ( 'NONE',  ( 0.000000000000000000, 0.000000000000000000, 805.0000000000000000 ) ) ;
#222 = ORGANIZATION ( 'NEURÈENÝ', 'NEURÈENÝ', '' ) ;
#223 = CARTESIAN_POINT ( 'NONE',  ( 0.000000000000000000, 0.000000000000000000, 805.0000000000000000 ) ) ;
#224 = COORDINATED_UNIVERSAL_TIME_OFFSET ( 1, 0, .AHEAD. ) ;
#225 = PERSON_AND_ORGANIZATION ( #211, #222 ) ;
#226 = PERSON_AND_ORGANIZATION ( #211, #222 ) ;
#227 = EDGE_LOOP ( 'NONE', ( #14, #104 ) ) ;
#228 = PERSON_AND_ORGANIZATION_ROLE ( 'design_supplier' ) ;
#229 = VERTEX_POINT ( 'NONE', #1 ) ;
#230 = APPROVAL_ROLE ( '' ) ;
#231 = CIRCLE ( 'NONE', #271, 0.1999999999999996503 ) ;
#232 = EDGE_LOOP ( 'NONE', ( #292, #180, #132, #125 ) ) ;
#233 = EDGE_CURVE ( 'NONE', #102, #247, #7, .T. ) ;
#234 = CARTESIAN_POINT ( 'NONE',  ( 0.000000000000000000, 0.000000000000000000, 805.0000000000000000 ) ) ;
#235 = DIRECTION ( 'NONE',  ( -1.000000000000000000, 0.000000000000000000, 0.000000000000000000 ) ) ;
#236 = DIRECTION ( 'NONE',  ( 1.224646799147353207E-16, 1.000000000000000000, -0.000000000000000000 ) ) ;
#237 = ORIENTED_EDGE ( 'NONE', *, *, #65, .F. ) ;
#238 = DIRECTION ( 'NONE',  ( -0.000000000000000000, -0.000000000000000000, -1.000000000000000000 ) ) ;
#239 = AXIS2_PLACEMENT_3D ( 'NONE', #285, #77, #243 ) ;
#240 = FACE_OUTER_BOUND ( 'NONE', #204, .T. ) ;
#241 = LINE ( 'NONE', #194, #133 ) ;
#242 = PRODUCT_DEFINITION_FORMATION_WITH_SPECIFIED_SOURCE ( 'LIBOVOLNÝ', '', #290, .NOT_KNOWN. ) ;
#243 = DIRECTION ( 'NONE',  ( 1.000000000000000000, 0.000000000000000000, 0.000000000000000000 ) ) ;
#244 = CC_DESIGN_PERSON_AND_ORGANIZATION_ASSIGNMENT ( #103, #228, ( #242 ) ) ;
#245 = PERSON_AND_ORGANIZATION ( #211, #222 ) ;
#246 = PERSON_AND_ORGANIZATION ( #211, #222 ) ;
#247 = VERTEX_POINT ( 'NONE', #171 ) ;
#248 = DATE_AND_TIME ( #81, #172 ) ;
#249 = AXIS2_PLACEMENT_3D ( 'NONE', #234, #297, #304 ) ;
#250 = DIRECTION ( 'NONE',  ( -0.000000000000000000, -0.000000000000000000, -1.000000000000000000 ) ) ;
#251 = DIRECTION ( 'NONE',  ( -0.000000000000000000, -0.000000000000000000, -1.000000000000000000 ) ) ;
#252 = CARTESIAN_POINT ( 'NONE',  ( 3.949999999999999734, 0.000000000000000000, 4.999999999999991118 ) ) ;
#253 = AXIS2_PLACEMENT_3D ( 'NONE', #273, #214, #92 ) ;
#254 = DIRECTION ( 'NONE',  ( 1.000000000000000000, 0.000000000000000000, 0.000000000000000000 ) ) ;
#255 = EDGE_LOOP ( 'NONE', ( #270, #137 ) ) ;
#256 = DIRECTION ( 'NONE',  ( -1.000000000000000000, 0.000000000000000000, 0.000000000000000000 ) ) ;
#257 = CARTESIAN_POINT ( 'NONE',  ( 6.000000000000000888, 7.347880794884120722E-16, 5.000000000000000000 ) ) ;
#258 = AXIS2_PLACEMENT_3D ( 'NONE', #205, #83, #31 ) ;
#259 = EDGE_CURVE ( 'NONE', #229, #34, #74, .T. ) ;
#260 = DIRECTION ( 'NONE',  ( 0.000000000000000000, 0.000000000000000000, 1.000000000000000000 ) ) ;
#261 = CC_DESIGN_DATE_AND_TIME_ASSIGNMENT ( #248, #79, ( #303 ) ) ;
#262 = DIRECTION ( 'NONE',  ( 0.000000000000000000, 0.000000000000000000, 1.000000000000000000 ) ) ;
#263 = CARTESIAN_POINT ( 'NONE',  ( -6.000000000000000888, 0.000000000000000000, 0.000000000000000000 ) ) ;
#264 = CIRCLE ( 'NONE', #298, 6.000000000000000888 ) ;
#265 = LOCAL_TIME ( 12, 4, 21.00000000000000000, #268 ) ;
#266 = COORDINATED_UNIVERSAL_TIME_OFFSET ( 1, 0, .AHEAD. ) ;
#267 = TOROIDAL_SURFACE ( 'NONE', #239, 3.949999999999999734, 0.2000000000000000111 ) ;
#268 = COORDINATED_UNIVERSAL_TIME_OFFSET ( 1, 0, .AHEAD. ) ;
#269 = EDGE_LOOP ( 'NONE', ( #275, #62, #11, #43 ) ) ;
#270 = ORIENTED_EDGE ( 'NONE', *, *, #129, .F. ) ;
#271 = AXIS2_PLACEMENT_3D ( 'NONE', #42, #90, #183 ) ;
#272 = PRODUCT_DEFINITION ( 'NEZNÁMÝ', '', #242, #61 ) ;
#273 = CARTESIAN_POINT ( 'NONE',  ( 0.000000000000000000, 0.000000000000000000, 5.199999999999982414 ) ) ;
#274 = CARTESIAN_POINT ( 'NONE',  ( 0.000000000000000000, 0.000000000000000000, 5.000000000000000000 ) ) ;
#275 = ORIENTED_EDGE ( 'NONE', *, *, #49, .F. ) ;
#276 = CIRCLE ( 'NONE', #93, 6.000000000000000888 ) ;
#277 = ORIENTED_EDGE ( 'NONE', *, *, #259, .T. ) ;
#278 = PLANE ( 'NONE',  #148 ) ;
#279 = LOCAL_TIME ( 12, 4, 21.00000000000000000, #105 ) ;
#280 = CARTESIAN_POINT ( 'NONE',  ( 0.000000000000000000, 0.000000000000000000, 5.000000000000000000 ) ) ;
#281 = ADVANCED_FACE ( 'NONE', ( #240 ), #75, .T. ) ;
#282 = AXIS2_PLACEMENT_3D ( 'NONE', #216, #190, #256 ) ;
#283 = DIRECTION ( 'NONE',  ( 1.000000000000000000, 0.000000000000000000, 0.000000000000000000 ) ) ;
#284 = DIRECTION ( 'NONE',  ( 1.000000000000000000, 0.000000000000000000, 0.000000000000000000 ) ) ;
#285 = CARTESIAN_POINT ( 'NONE',  ( 0.000000000000000000, 0.000000000000000000, 5.199999999999982414 ) ) ;
#286 = PERSON_AND_ORGANIZATION_ROLE ( 'creator' ) ;
#287 = AXIS2_PLACEMENT_3D ( 'NONE', #97, #307, #94 ) ;
#288 = APPROVAL_DATE_TIME ( #101, #26 ) ;
#289 = EDGE_LOOP ( 'NONE', ( #37, #45, #140, #210 ) ) ;
#290 = PRODUCT ( 'd17b', 'd17b', '', ( #182 ) ) ;
#291 =( NAMED_UNIT ( * ) PLANE_ANGLE_UNIT ( ) SI_UNIT ( $, .RADIAN. ) );
#292 = ORIENTED_EDGE ( 'NONE', *, *, #191, .F. ) ;
#293 = APPROVAL_STATUS ( 'not_yet_approved' ) ;
#294 = AXIS2_PLACEMENT_3D ( 'NONE', #51, #220, #284 ) ;
#295 = DATE_AND_TIME ( #208, #279 ) ;
#296 = ADVANCED_FACE ( 'NONE', ( #52 ), #267, .F. ) ;
#297 = DIRECTION ( 'NONE',  ( -0.000000000000000000, -0.000000000000000000, -1.000000000000000000 ) ) ;
#298 = AXIS2_PLACEMENT_3D ( 'NONE', #280, #145, #142 ) ;
#299 = AXIS2_PLACEMENT_3D ( 'NONE', #170, #260, #198 ) ;
#300 = CARTESIAN_POINT ( 'NONE',  ( 3.750000000000000000, 4.592425496802573972E-16, 805.0000000000000000 ) ) ;
#301 = ADVANCED_FACE ( 'NONE', ( #173, #120 ), #55, .T. ) ;
#302 = ORIENTED_EDGE ( 'NONE', *, *, #35, .F. ) ;
#303 = SECURITY_CLASSIFICATION ( '', '', #179 ) ;
#304 = DIRECTION ( 'NONE',  ( -1.000000000000000000, 0.000000000000000000, 0.000000000000000000 ) ) ;
#305 = DIRECTION ( 'NONE',  ( 0.000000000000000000, 0.000000000000000000, 1.000000000000000000 ) ) ;
#306 = CARTESIAN_POINT ( 'NONE',  ( 0.000000000000000000, 0.000000000000000000, 0.000000000000000000 ) ) ;
#307 = DIRECTION ( 'NONE',  ( 0.000000000000000000, 0.000000000000000000, 1.000000000000000000 ) ) ;
ENDSEC;
END-ISO-10303-21;
