ISO-10303-21;
HEADER;
FILE_DESCRIPTION (( 'STEP AP203' ),
    '1' );
FILE_NAME ('962c.STEP',
    '2023-02-12T11:15:11',
    ( '' ),
    ( '' ),
    'SwSTEP 2.0',
    'SolidWorks 2019',
    '' );
FILE_SCHEMA (( 'CONFIG_CONTROL_DESIGN' ));
ENDSEC;

DATA;
#1 = EDGE_LOOP ( 'NONE', ( #242, #140, #221, #216 ) ) ;
#2 = EDGE_CURVE ( 'NONE', #252, #164, #139, .T. ) ;
#3 = CARTESIAN_POINT ( 'NONE',  ( -5.500000000000000000, 0.000000000000000000, 5.000000000000000000 ) ) ;
#4 = LOCAL_TIME ( 12, 15, 11.00000000000000000, #16 ) ;
#5 = EDGE_LOOP ( 'NONE', ( #93, #40 ) ) ;
#6 = EDGE_CURVE ( 'NONE', #25, #224, #163, .T. ) ;
#7 = DIRECTION ( 'NONE',  ( -0.000000000000000000, -0.000000000000000000, -1.000000000000000000 ) ) ;
#8 = DIRECTION ( 'NONE',  ( 0.000000000000000000, 0.000000000000000000, 1.000000000000000000 ) ) ;
#9 = ORIENTED_EDGE ( 'NONE', *, *, #142, .F. ) ;
#10 = PERSON_AND_ORGANIZATION_ROLE ( 'design_supplier' ) ;
#11 = APPLICATION_PROTOCOL_DEFINITION ( 'international standard', 'config_control_design', 1994, #111 ) ;
#12 = DIRECTION ( 'NONE',  ( 1.000000000000000000, 0.000000000000000000, 0.000000000000000000 ) ) ;
#13 = LOCAL_TIME ( 12, 15, 11.00000000000000000, #107 ) ;
#14 = EDGE_CURVE ( 'NONE', #252, #97, #115, .T. ) ;
#15 = CC_DESIGN_PERSON_AND_ORGANIZATION_ASSIGNMENT ( #147, #229, ( #255 ) ) ;
#16 = COORDINATED_UNIVERSAL_TIME_OFFSET ( 1, 0, .AHEAD. ) ;
#17 = DESIGN_CONTEXT ( 'detailed design', #143, 'design' ) ;
#18 = CALENDAR_DATE ( 2023, 12, 2 ) ;
#19 = DATE_AND_TIME ( #126, #4 ) ;
#20 = CARTESIAN_POINT ( 'NONE',  ( 0.000000000000000000, 0.000000000000000000, 125.0000000000000000 ) ) ;
#21 = CC_DESIGN_PERSON_AND_ORGANIZATION_ASSIGNMENT ( #33, #152, ( #227 ) ) ;
#22 = VERTEX_POINT ( 'NONE', #200 ) ;
#23 = CYLINDRICAL_SURFACE ( 'NONE', #72, 5.500000000000000000 ) ;
#24 = CALENDAR_DATE ( 2023, 12, 2 ) ;
#25 = VERTEX_POINT ( 'NONE', #43 ) ;
#26 = ORIENTED_EDGE ( 'NONE', *, *, #14, .F. ) ;
#27 = CIRCLE ( 'NONE', #236, 8.000000000000000000 ) ;
#28 = DIRECTION ( 'NONE',  ( 0.000000000000000000, 0.000000000000000000, 1.000000000000000000 ) ) ;
#29 = CC_DESIGN_APPROVAL ( #133, ( #136 ) ) ;
#30 = CARTESIAN_POINT ( 'NONE',  ( 0.000000000000000000, 0.000000000000000000, 125.0000000000000000 ) ) ;
#31 = DIRECTION ( 'NONE',  ( -0.000000000000000000, -0.000000000000000000, -1.000000000000000000 ) ) ;
#32 = AXIS2_PLACEMENT_3D ( 'NONE', #103, #100, #186 ) ;
#33 = PERSON_AND_ORGANIZATION ( #237, #232 ) ;
#34 = DIRECTION ( 'NONE',  ( 1.000000000000000000, 0.000000000000000000, 0.000000000000000000 ) ) ;
#35 = LOCAL_TIME ( 12, 15, 11.00000000000000000, #243 ) ;
#36 = APPROVAL_STATUS ( 'not_yet_approved' ) ;
#37 = VECTOR ( 'NONE', #175, 1000.000000000000000 ) ;
#38 = APPROVAL_PERSON_ORGANIZATION ( #208, #133, #51 ) ;
#39 = DIRECTION ( 'NONE',  ( 1.000000000000000000, 0.000000000000000000, -0.000000000000000000 ) ) ;
#40 = ORIENTED_EDGE ( 'NONE', *, *, #195, .F. ) ;
#41 = ORIENTED_EDGE ( 'NONE', *, *, #52, .T. ) ;
#42 = APPROVAL_ROLE ( '' ) ;
#43 = CARTESIAN_POINT ( 'NONE',  ( 8.000000000000000000, 9.797174393178825657E-16, 5.000000000000000000 ) ) ;
#44 = DIRECTION ( 'NONE',  ( 1.000000000000000000, 0.000000000000000000, 0.000000000000000000 ) ) ;
#45 = AXIS2_PLACEMENT_3D ( 'NONE', #222, #239, #39 ) ;
#46 = DIRECTION ( 'NONE',  ( 1.000000000000000000, 0.000000000000000000, -0.000000000000000000 ) ) ;
#47 = APPROVAL_DATE_TIME ( #167, #214 ) ;
#48 = FACE_BOUND ( 'NONE', #5, .T. ) ;
#49 = AXIS2_PLACEMENT_3D ( 'NONE', #30, #84, #46 ) ;
#50 = CC_DESIGN_PERSON_AND_ORGANIZATION_ASSIGNMENT ( #61, #10, ( #136 ) ) ;
#51 = APPROVAL_ROLE ( '' ) ;
#52 = EDGE_CURVE ( 'NONE', #164, #22, #64, .T. ) ;
#53 = ORIENTED_EDGE ( 'NONE', *, *, #14, .T. ) ;
#54 = EDGE_CURVE ( 'NONE', #224, #98, #196, .T. ) ;
#55 = AXIS2_PLACEMENT_3D ( 'NONE', #238, #204, #44 ) ;
#56 = ORIENTED_EDGE ( 'NONE', *, *, #2, .F. ) ;
#57 = FACE_OUTER_BOUND ( 'NONE', #113, .T. ) ;
#58 = ADVANCED_FACE ( 'NONE', ( #80 ), #160, .T. ) ;
#59 = EDGE_LOOP ( 'NONE', ( #82, #56, #53, #130 ) ) ;
#60 = DIRECTION ( 'NONE',  ( 1.000000000000000000, 0.000000000000000000, 0.000000000000000000 ) ) ;
#61 = PERSON_AND_ORGANIZATION ( #237, #232 ) ;
#62 = ORIENTED_EDGE ( 'NONE', *, *, #6, .T. ) ;
#63 = DIRECTION ( 'NONE',  ( 0.000000000000000000, 0.000000000000000000, 1.000000000000000000 ) ) ;
#64 = LINE ( 'NONE', #177, #76 ) ;
#65 = ADVANCED_FACE ( 'NONE', ( #57 ), #135, .F. ) ;
#66 = DIRECTION ( 'NONE',  ( -1.000000000000000000, 0.000000000000000000, 0.000000000000000000 ) ) ;
#67 = CARTESIAN_POINT ( 'NONE',  ( 0.000000000000000000, 0.000000000000000000, 5.000000000000000000 ) ) ;
#68 = MECHANICAL_CONTEXT ( 'NONE', #111, 'mechanical' ) ;
#69 = DIRECTION ( 'NONE',  ( 0.000000000000000000, 0.000000000000000000, 1.000000000000000000 ) ) ;
#70 = CIRCLE ( 'NONE', #220, 5.500000000000000000 ) ;
#71 = ORIENTED_EDGE ( 'NONE', *, *, #54, .F. ) ;
#72 = AXIS2_PLACEMENT_3D ( 'NONE', #197, #79, #176 ) ;
#73 = ORIENTED_EDGE ( 'NONE', *, *, #156, .T. ) ;
#74 = CIRCLE ( 'NONE', #191, 5.500000000000000000 ) ;
#75 = CC_DESIGN_DATE_AND_TIME_ASSIGNMENT ( #241, #99, ( #254 ) ) ;
#76 = VECTOR ( 'NONE', #7, 1000.000000000000000 ) ;
#77 = DIRECTION ( 'NONE',  ( -0.000000000000000000, -0.000000000000000000, -1.000000000000000000 ) ) ;
#78 = ORIENTED_EDGE ( 'NONE', *, *, #127, .F. ) ;
#79 = DIRECTION ( 'NONE',  ( -0.000000000000000000, -0.000000000000000000, -1.000000000000000000 ) ) ;
#80 = FACE_OUTER_BOUND ( 'NONE', #59, .T. ) ;
#81 = CARTESIAN_POINT ( 'NONE',  ( -5.500000000000000000, 0.000000000000000000, 125.0000000000000000 ) ) ;
#82 = ORIENTED_EDGE ( 'NONE', *, *, #52, .F. ) ;
#83 = DIRECTION ( 'NONE',  ( 1.000000000000000000, 0.000000000000000000, 0.000000000000000000 ) ) ;
#84 = DIRECTION ( 'NONE',  ( 0.000000000000000000, 0.000000000000000000, 1.000000000000000000 ) ) ;
#85 = MANIFOLD_SOLID_BREP ( 'Pøidat vysunutím3', #198 ) ;
#86 = DIRECTION ( 'NONE',  ( 0.000000000000000000, 0.000000000000000000, 1.000000000000000000 ) ) ;
#87 = LINE ( 'NONE', #209, #173 ) ;
#88 = ADVANCED_BREP_SHAPE_REPRESENTATION ( '962c', ( #85, #215 ), #203 ) ;
#89 = CC_DESIGN_PERSON_AND_ORGANIZATION_ASSIGNMENT ( #165, #131, ( #136 ) ) ;
#90 = ADVANCED_FACE ( 'NONE', ( #94 ), #23, .T. ) ;
#91 = DATE_AND_TIME ( #18, #150 ) ;
#92 = SECURITY_CLASSIFICATION_LEVEL ( 'unclassified' ) ;
#93 = ORIENTED_EDGE ( 'NONE', *, *, #185, .F. ) ;
#94 = FACE_OUTER_BOUND ( 'NONE', #137, .T. ) ;
#95 = CARTESIAN_POINT ( 'NONE',  ( 0.000000000000000000, 0.000000000000000000, 125.0000000000000000 ) ) ;
#96 = ORIENTED_EDGE ( 'NONE', *, *, #6, .F. ) ;
#97 = VERTEX_POINT ( 'NONE', #3 ) ;
#98 = VERTEX_POINT ( 'NONE', #230 ) ;
#99 = DATE_TIME_ROLE ( 'classification_date' ) ;
#100 = DIRECTION ( 'NONE',  ( 0.000000000000000000, 0.000000000000000000, 1.000000000000000000 ) ) ;
#101 = DIRECTION ( 'NONE',  ( 1.000000000000000000, 0.000000000000000000, 0.000000000000000000 ) ) ;
#102 = CIRCLE ( 'NONE', #32, 8.000000000000000000 ) ;
#103 = CARTESIAN_POINT ( 'NONE',  ( 0.000000000000000000, 0.000000000000000000, 0.000000000000000000 ) ) ;
#104 = AXIS2_PLACEMENT_3D ( 'NONE', #180, #31, #66 ) ;
#105 = PLANE ( 'NONE',  #235 ) ;
#106 = APPROVAL_ROLE ( '' ) ;
#107 = COORDINATED_UNIVERSAL_TIME_OFFSET ( 1, 0, .AHEAD. ) ;
#108 = UNCERTAINTY_MEASURE_WITH_UNIT (LENGTH_MEASURE( 1.000000000000000082E-05 ), #170, 'distance_accuracy_value', 'NONE');
#109 = CC_DESIGN_APPROVAL ( #174, ( #227 ) ) ;
#110 = DATE_AND_TIME ( #190, #13 ) ;
#111 = APPLICATION_CONTEXT ( 'configuration controlled 3d designs of mechanical parts and assemblies' ) ;
#112 = AXIS2_PLACEMENT_3D ( 'NONE', #114, #162, #60 ) ;
#113 = EDGE_LOOP ( 'NONE', ( #9, #78 ) ) ;
#114 = CARTESIAN_POINT ( 'NONE',  ( 0.000000000000000000, 0.000000000000000000, 5.000000000000000000 ) ) ;
#115 = LINE ( 'NONE', #245, #233 ) ;
#116 = CALENDAR_DATE ( 2023, 12, 2 ) ;
#117 = CIRCLE ( 'NONE', #161, 5.500000000000000000 ) ;
#118 = CC_DESIGN_PERSON_AND_ORGANIZATION_ASSIGNMENT ( #138, #120, ( #254 ) ) ;
#119 = EDGE_LOOP ( 'NONE', ( #146, #62 ) ) ;
#120 = PERSON_AND_ORGANIZATION_ROLE ( 'classification_officer' ) ;
#121 = CARTESIAN_POINT ( 'NONE',  ( 5.500000000000000000, 6.735557395310442023E-16, 125.0000000000000000 ) ) ;
#122 = CC_DESIGN_DATE_AND_TIME_ASSIGNMENT ( #91, #154, ( #227 ) ) ;
#123 = AXIS2_PLACEMENT_3D ( 'NONE', #67, #219, #159 ) ;
#124 = DIRECTION ( 'NONE',  ( 1.000000000000000000, 0.000000000000000000, 0.000000000000000000 ) ) ;
#125 = CYLINDRICAL_SURFACE ( 'NONE', #104, 8.000000000000000000 ) ;
#126 = CALENDAR_DATE ( 2023, 12, 2 ) ;
#127 = EDGE_CURVE ( 'NONE', #179, #98, #102, .T. ) ;
#128 = APPROVAL_STATUS ( 'not_yet_approved' ) ;
#129 = ORIENTED_EDGE ( 'NONE', *, *, #127, .T. ) ;
#130 = ORIENTED_EDGE ( 'NONE', *, *, #185, .T. ) ;
#131 = PERSON_AND_ORGANIZATION_ROLE ( 'creator' ) ;
#132 = AXIS2_PLACEMENT_3D ( 'NONE', #20, #77, #158 ) ;
#133 = APPROVAL ( #128, 'NEURÈENÝ' ) ;
#134 = EDGE_CURVE ( 'NONE', #224, #25, #194, .T. ) ;
#135 = PLANE ( 'NONE',  #45 ) ;
#136 = PRODUCT_DEFINITION_FORMATION_WITH_SPECIFIED_SOURCE ( 'LIBOVOLNÝ', '', #255, .NOT_KNOWN. ) ;
#137 = EDGE_LOOP ( 'NONE', ( #144, #41, #181, #26 ) ) ;
#138 = PERSON_AND_ORGANIZATION ( #237, #232 ) ;
#139 = CIRCLE ( 'NONE', #55, 5.500000000000000000 ) ;
#140 = ORIENTED_EDGE ( 'NONE', *, *, #134, .F. ) ;
#141 = PERSON_AND_ORGANIZATION ( #237, #232 ) ;
#142 = EDGE_CURVE ( 'NONE', #98, #179, #27, .T. ) ;
#143 = APPLICATION_CONTEXT ( 'configuration controlled 3d designs of mechanical parts and assemblies' ) ;
#144 = ORIENTED_EDGE ( 'NONE', *, *, #234, .F. ) ;
#145 = CARTESIAN_POINT ( 'NONE',  ( 0.000000000000000000, 0.000000000000000000, 0.000000000000000000 ) ) ;
#146 = ORIENTED_EDGE ( 'NONE', *, *, #134, .T. ) ;
#147 = PERSON_AND_ORGANIZATION ( #237, #232 ) ;
#148 =( NAMED_UNIT ( * ) SI_UNIT ( $, .STERADIAN. ) SOLID_ANGLE_UNIT ( ) );
#149 = FACE_OUTER_BOUND ( 'NONE', #212, .T. ) ;
#150 = LOCAL_TIME ( 12, 15, 11.00000000000000000, #210 ) ;
#151 = SHAPE_DEFINITION_REPRESENTATION ( #211, #88 ) ;
#152 = PERSON_AND_ORGANIZATION_ROLE ( 'creator' ) ;
#153 = PLANE ( 'NONE',  #49 ) ;
#154 = DATE_TIME_ROLE ( 'creation_date' ) ;
#155 = CC_DESIGN_SECURITY_CLASSIFICATION ( #254, ( #136 ) ) ;
#156 = EDGE_CURVE ( 'NONE', #25, #179, #87, .T. ) ;
#157 = APPROVAL_PERSON_ORGANIZATION ( #213, #174, #106 ) ;
#158 = DIRECTION ( 'NONE',  ( -1.000000000000000000, 0.000000000000000000, 0.000000000000000000 ) ) ;
#159 = DIRECTION ( 'NONE',  ( -1.000000000000000000, 0.000000000000000000, 0.000000000000000000 ) ) ;
#160 = CYLINDRICAL_SURFACE ( 'NONE', #132, 5.500000000000000000 ) ;
#161 = AXIS2_PLACEMENT_3D ( 'NONE', #95, #8, #247 ) ;
#162 = DIRECTION ( 'NONE',  ( 0.000000000000000000, 0.000000000000000000, 1.000000000000000000 ) ) ;
#163 = CIRCLE ( 'NONE', #112, 8.000000000000000000 ) ;
#164 = VERTEX_POINT ( 'NONE', #121 ) ;
#165 = PERSON_AND_ORGANIZATION ( #237, #232 ) ;
#166 = ORIENTED_EDGE ( 'NONE', *, *, #2, .T. ) ;
#167 = DATE_AND_TIME ( #116, #35 ) ;
#168 = FACE_OUTER_BOUND ( 'NONE', #119, .T. ) ;
#169 = ADVANCED_FACE ( 'NONE', ( #48, #168 ), #105, .T. ) ;
#170 =( LENGTH_UNIT ( ) NAMED_UNIT ( * ) SI_UNIT ( .MILLI., .METRE. ) );
#171 = CARTESIAN_POINT ( 'NONE',  ( 0.000000000000000000, 0.000000000000000000, 0.000000000000000000 ) ) ;
#172 = DIRECTION ( 'NONE',  ( 0.000000000000000000, 0.000000000000000000, 1.000000000000000000 ) ) ;
#173 = VECTOR ( 'NONE', #231, 1000.000000000000000 ) ;
#174 = APPROVAL ( #36, 'NEURÈENÝ' ) ;
#175 = DIRECTION ( 'NONE',  ( -0.000000000000000000, -0.000000000000000000, -1.000000000000000000 ) ) ;
#176 = DIRECTION ( 'NONE',  ( -1.000000000000000000, 0.000000000000000000, 0.000000000000000000 ) ) ;
#177 = CARTESIAN_POINT ( 'NONE',  ( 5.500000000000000000, 6.735557395310442023E-16, 125.0000000000000000 ) ) ;
#178 = APPROVAL_PERSON_ORGANIZATION ( #141, #214, #42 ) ;
#179 = VERTEX_POINT ( 'NONE', #250 ) ;
#180 = CARTESIAN_POINT ( 'NONE',  ( 0.000000000000000000, 0.000000000000000000, 5.000000000000000000 ) ) ;
#181 = ORIENTED_EDGE ( 'NONE', *, *, #195, .T. ) ;
#182 = FACE_OUTER_BOUND ( 'NONE', #1, .T. ) ;
#183 = CARTESIAN_POINT ( 'NONE',  ( 0.000000000000000000, 0.000000000000000000, 5.000000000000000000 ) ) ;
#184 = CYLINDRICAL_SURFACE ( 'NONE', #123, 8.000000000000000000 ) ;
#185 = EDGE_CURVE ( 'NONE', #97, #22, #70, .T. ) ;
#186 = DIRECTION ( 'NONE',  ( 1.000000000000000000, 0.000000000000000000, 0.000000000000000000 ) ) ;
#187 = CARTESIAN_POINT ( 'NONE',  ( 0.000000000000000000, 0.000000000000000000, 5.000000000000000000 ) ) ;
#188 = APPLICATION_PROTOCOL_DEFINITION ( 'international standard', 'config_control_design', 1994, #143 ) ;
#189 = ADVANCED_FACE ( 'NONE', ( #207 ), #153, .T. ) ;
#190 = CALENDAR_DATE ( 2023, 12, 2 ) ;
#191 = AXIS2_PLACEMENT_3D ( 'NONE', #246, #28, #101 ) ;
#192 = APPROVAL_DATE_TIME ( #110, #174 ) ;
#193 = PRODUCT_RELATED_PRODUCT_CATEGORY ( 'detail', '', ( #255 ) ) ;
#194 = CIRCLE ( 'NONE', #218, 8.000000000000000000 ) ;
#195 = EDGE_CURVE ( 'NONE', #22, #97, #74, .T. ) ;
#196 = LINE ( 'NONE', #201, #37 ) ;
#197 = CARTESIAN_POINT ( 'NONE',  ( 0.000000000000000000, 0.000000000000000000, 125.0000000000000000 ) ) ;
#198 = CLOSED_SHELL ( 'NONE', ( #90, #217, #244, #169, #65, #58, #189 ) ) ;
#199 = CARTESIAN_POINT ( 'NONE',  ( -8.000000000000000000, 0.000000000000000000, 5.000000000000000000 ) ) ;
#200 = CARTESIAN_POINT ( 'NONE',  ( 5.500000000000000000, 6.735557395310442023E-16, 5.000000000000000000 ) ) ;
#201 = CARTESIAN_POINT ( 'NONE',  ( -8.000000000000000000, 0.000000000000000000, 5.000000000000000000 ) ) ;
#202 = LOCAL_TIME ( 12, 15, 11.00000000000000000, #223 ) ;
#203 =( GEOMETRIC_REPRESENTATION_CONTEXT ( 3 ) GLOBAL_UNCERTAINTY_ASSIGNED_CONTEXT ( ( #108 ) ) GLOBAL_UNIT_ASSIGNED_CONTEXT ( ( #170, #205, #148 ) ) REPRESENTATION_CONTEXT ( 'NONE', 'WORKASPACE' ) );
#204 = DIRECTION ( 'NONE',  ( 0.000000000000000000, 0.000000000000000000, 1.000000000000000000 ) ) ;
#205 =( NAMED_UNIT ( * ) PLANE_ANGLE_UNIT ( ) SI_UNIT ( $, .RADIAN. ) );
#206 = CARTESIAN_POINT ( 'NONE',  ( 0.000000000000000000, 0.000000000000000000, 5.000000000000000000 ) ) ;
#207 = FACE_OUTER_BOUND ( 'NONE', #240, .T. ) ;
#208 = PERSON_AND_ORGANIZATION ( #237, #232 ) ;
#209 = CARTESIAN_POINT ( 'NONE',  ( 8.000000000000000000, 9.797174393178825657E-16, 5.000000000000000000 ) ) ;
#210 = COORDINATED_UNIVERSAL_TIME_OFFSET ( 1, 0, .AHEAD. ) ;
#211 = PRODUCT_DEFINITION_SHAPE ( 'NONE', 'NONE',  #227 ) ;
#212 = EDGE_LOOP ( 'NONE', ( #96, #73, #129, #71 ) ) ;
#213 = PERSON_AND_ORGANIZATION ( #237, #232 ) ;
#214 = APPROVAL ( #225, 'NEURÈENÝ' ) ;
#215 = AXIS2_PLACEMENT_3D ( 'NONE', #145, #63, #83 ) ;
#216 = ORIENTED_EDGE ( 'NONE', *, *, #142, .T. ) ;
#217 = ADVANCED_FACE ( 'NONE', ( #149 ), #184, .T. ) ;
#218 = AXIS2_PLACEMENT_3D ( 'NONE', #183, #86, #34 ) ;
#219 = DIRECTION ( 'NONE',  ( -0.000000000000000000, -0.000000000000000000, -1.000000000000000000 ) ) ;
#220 = AXIS2_PLACEMENT_3D ( 'NONE', #206, #69, #12 ) ;
#221 = ORIENTED_EDGE ( 'NONE', *, *, #54, .T. ) ;
#222 = CARTESIAN_POINT ( 'NONE',  ( 0.000000000000000000, 0.000000000000000000, 0.000000000000000000 ) ) ;
#223 = COORDINATED_UNIVERSAL_TIME_OFFSET ( 1, 0, .AHEAD. ) ;
#224 = VERTEX_POINT ( 'NONE', #199 ) ;
#225 = APPROVAL_STATUS ( 'not_yet_approved' ) ;
#226 = DIRECTION ( 'NONE',  ( -0.000000000000000000, -0.000000000000000000, -1.000000000000000000 ) ) ;
#227 = PRODUCT_DEFINITION ( 'NEZNÁMÝ', '', #136, #17 ) ;
#228 = ORIENTED_EDGE ( 'NONE', *, *, #234, .T. ) ;
#229 = PERSON_AND_ORGANIZATION_ROLE ( 'design_owner' ) ;
#230 = CARTESIAN_POINT ( 'NONE',  ( -8.000000000000000000, 0.000000000000000000, 0.000000000000000000 ) ) ;
#231 = DIRECTION ( 'NONE',  ( -0.000000000000000000, -0.000000000000000000, -1.000000000000000000 ) ) ;
#232 = ORGANIZATION ( 'NEURÈENÝ', 'NEURÈENÝ', '' ) ;
#233 = VECTOR ( 'NONE', #226, 1000.000000000000000 ) ;
#234 = EDGE_CURVE ( 'NONE', #164, #252, #117, .T. ) ;
#235 = AXIS2_PLACEMENT_3D ( 'NONE', #187, #172, #248 ) ;
#236 = AXIS2_PLACEMENT_3D ( 'NONE', #171, #249, #124 ) ;
#237 = PERSON ( 'NEURÈENÝ', 'NEURÈENÝ', 'NEURÈENÝ', ('NEURÈENÝ'), ('NEURÈENÝ'), ('NEURÈENÝ') ) ;
#238 = CARTESIAN_POINT ( 'NONE',  ( 0.000000000000000000, 0.000000000000000000, 125.0000000000000000 ) ) ;
#239 = DIRECTION ( 'NONE',  ( 0.000000000000000000, 0.000000000000000000, 1.000000000000000000 ) ) ;
#240 = EDGE_LOOP ( 'NONE', ( #166, #228 ) ) ;
#241 = DATE_AND_TIME ( #24, #202 ) ;
#242 = ORIENTED_EDGE ( 'NONE', *, *, #156, .F. ) ;
#243 = COORDINATED_UNIVERSAL_TIME_OFFSET ( 1, 0, .AHEAD. ) ;
#244 = ADVANCED_FACE ( 'NONE', ( #182 ), #125, .T. ) ;
#245 = CARTESIAN_POINT ( 'NONE',  ( -5.500000000000000000, 0.000000000000000000, 125.0000000000000000 ) ) ;
#246 = CARTESIAN_POINT ( 'NONE',  ( 0.000000000000000000, 0.000000000000000000, 5.000000000000000000 ) ) ;
#247 = DIRECTION ( 'NONE',  ( 1.000000000000000000, 0.000000000000000000, 0.000000000000000000 ) ) ;
#248 = DIRECTION ( 'NONE',  ( 1.000000000000000000, 0.000000000000000000, -0.000000000000000000 ) ) ;
#249 = DIRECTION ( 'NONE',  ( 0.000000000000000000, 0.000000000000000000, 1.000000000000000000 ) ) ;
#250 = CARTESIAN_POINT ( 'NONE',  ( 8.000000000000000000, 9.797174393178825657E-16, 0.000000000000000000 ) ) ;
#251 = CC_DESIGN_APPROVAL ( #214, ( #254 ) ) ;
#252 = VERTEX_POINT ( 'NONE', #81 ) ;
#253 = APPROVAL_DATE_TIME ( #19, #133 ) ;
#254 = SECURITY_CLASSIFICATION ( '', '', #92 ) ;
#255 = PRODUCT ( '962c', '962c', '', ( #68 ) ) ;
ENDSEC;
END-ISO-10303-21;
