ISO-10303-21;
HEADER;
FILE_DESCRIPTION (( 'STEP AP203' ),
    '1' );
FILE_NAME ('6266.STEP',
    '2022-07-07T09:53:35',
    ( '' ),
    ( '' ),
    'SwSTEP 2.0',
    'SolidWorks 2019',
    '' );
FILE_SCHEMA (( 'CONFIG_CONTROL_DESIGN' ));
ENDSEC;

DATA;
#1 = EDGE_CURVE ( 'NONE', #176, #198, #21, .T. ) ;
#2 = DIRECTION ( 'NONE',  ( 1.000000000000000000, 0.000000000000000000, 0.000000000000000000 ) ) ;
#3 = CARTESIAN_POINT ( 'NONE',  ( 5.000000000000000888, 6.123233995736767268E-16, 5.199999999999982414 ) ) ;
#4 = CIRCLE ( 'NONE', #16, 5.200000000000001066 ) ;
#5 = FACE_OUTER_BOUND ( 'NONE', #243, .T. ) ;
#6 = VERTEX_POINT ( 'NONE', #97 ) ;
#7 = ORIENTED_EDGE ( 'NONE', *, *, #42, .F. ) ;
#8 = CARTESIAN_POINT ( 'NONE',  ( -5.000000000000000888, 0.000000000000000000, 5.199999999999982414 ) ) ;
#9 = DATE_AND_TIME ( #209, #127 ) ;
#10 = EDGE_CURVE ( 'NONE', #117, #213, #62, .T. ) ;
#11 = FACE_BOUND ( 'NONE', #30, .T. ) ;
#12 = PERSON_AND_ORGANIZATION_ROLE ( 'classification_officer' ) ;
#13 = AXIS2_PLACEMENT_3D ( 'NONE', #35, #186, #204 ) ;
#14 = DIRECTION ( 'NONE',  ( -0.000000000000000000, -0.000000000000000000, -1.000000000000000000 ) ) ;
#15 = DIRECTION ( 'NONE',  ( -0.000000000000000000, -0.000000000000000000, -1.000000000000000000 ) ) ;
#16 = AXIS2_PLACEMENT_3D ( 'NONE', #194, #124, #199 ) ;
#17 = EDGE_CURVE ( 'NONE', #75, #213, #4, .T. ) ;
#18 = ORIENTED_EDGE ( 'NONE', *, *, #154, .T. ) ;
#19 = CARTESIAN_POINT ( 'NONE',  ( 0.000000000000000000, 0.000000000000000000, 5.000000000000000000 ) ) ;
#20 = APPROVAL_PERSON_ORGANIZATION ( #238, #170, #286 ) ;
#21 = CIRCLE ( 'NONE', #195, 8.000000000000000000 ) ;
#22 = AXIS2_PLACEMENT_3D ( 'NONE', #156, #14, #109 ) ;
#23 = PRODUCT_DEFINITION_FORMATION_WITH_SPECIFIED_SOURCE ( 'LIBOVOLNÝ', '', #100, .NOT_KNOWN. ) ;
#24 = EDGE_CURVE ( 'NONE', #187, #6, #49, .T. ) ;
#25 = EDGE_LOOP ( 'NONE', ( #158, #27, #290, #279 ) ) ;
#26 = CIRCLE ( 'NONE', #215, 0.1999999999999996503 ) ;
#27 = ORIENTED_EDGE ( 'NONE', *, *, #271, .T. ) ;
#28 = ORIENTED_EDGE ( 'NONE', *, *, #178, .F. ) ;
#29 = CARTESIAN_POINT ( 'NONE',  ( 0.000000000000000000, 0.000000000000000000, 0.000000000000000000 ) ) ;
#30 = EDGE_LOOP ( 'NONE', ( #113, #244 ) ) ;
#31 = CC_DESIGN_APPROVAL ( #170, ( #226 ) ) ;
#32 = ADVANCED_FACE ( 'NONE', ( #5 ), #289, .T. ) ;
#33 = CALENDAR_DATE ( 2022, 7, 7 ) ;
#34 = ORIENTED_EDGE ( 'NONE', *, *, #24, .T. ) ;
#35 = CARTESIAN_POINT ( 'NONE',  ( 0.000000000000000000, 0.000000000000000000, 5.000000000000000000 ) ) ;
#36 = DATE_AND_TIME ( #110, #141 ) ;
#37 = ORIENTED_EDGE ( 'NONE', *, *, #118, .T. ) ;
#38 = APPLICATION_PROTOCOL_DEFINITION ( 'international standard', 'config_control_design', 1994, #260 ) ;
#39 = FACE_OUTER_BOUND ( 'NONE', #235, .T. ) ;
#40 = APPROVAL_DATE_TIME ( #9, #281 ) ;
#41 = CARTESIAN_POINT ( 'NONE',  ( 0.000000000000000000, 0.000000000000000000, 5.199999999999982414 ) ) ;
#42 = EDGE_CURVE ( 'NONE', #213, #75, #192, .T. ) ;
#43 = FACE_OUTER_BOUND ( 'NONE', #206, .T. ) ;
#44 = DESIGN_CONTEXT ( 'detailed design', #260, 'design' ) ;
#45 = LINE ( 'NONE', #155, #96 ) ;
#46 = DIRECTION ( 'NONE',  ( 1.000000000000000000, 0.000000000000000000, 0.000000000000000000 ) ) ;
#47 = SECURITY_CLASSIFICATION ( '', '', #157 ) ;
#48 = AXIS2_PLACEMENT_3D ( 'NONE', #85, #284, #131 ) ;
#49 = CIRCLE ( 'NONE', #267, 5.000000000000000888 ) ;
#50 = LOCAL_TIME ( 11, 53, 35.00000000000000000, #185 ) ;
#51 = DIRECTION ( 'NONE',  ( -0.000000000000000000, -0.000000000000000000, -1.000000000000000000 ) ) ;
#52 = DIRECTION ( 'NONE',  ( 0.000000000000000000, 0.000000000000000000, 1.000000000000000000 ) ) ;
#53 = APPROVAL_PERSON_ORGANIZATION ( #228, #281, #130 ) ;
#54 = PRODUCT_DEFINITION_SHAPE ( 'NONE', 'NONE',  #226 ) ;
#55 = DIRECTION ( 'NONE',  ( 0.000000000000000000, 0.000000000000000000, 1.000000000000000000 ) ) ;
#56 = DIRECTION ( 'NONE',  ( 1.000000000000000000, 0.000000000000000000, 0.000000000000000000 ) ) ;
#57 = AXIS2_PLACEMENT_3D ( 'NONE', #221, #171, #102 ) ;
#58 = ORIENTED_EDGE ( 'NONE', *, *, #288, .T. ) ;
#59 = DIRECTION ( 'NONE',  ( 1.000000000000000000, 0.000000000000000000, -0.000000000000000000 ) ) ;
#60 = DIRECTION ( 'NONE',  ( -0.000000000000000000, -0.000000000000000000, -1.000000000000000000 ) ) ;
#61 = APPROVAL_DATE_TIME ( #165, #74 ) ;
#62 = CIRCLE ( 'NONE', #197, 0.1999999999999996503 ) ;
#63 = CARTESIAN_POINT ( 'NONE',  ( 5.200000000000001066, 0.000000000000000000, 4.999999999999991118 ) ) ;
#64 = COORDINATED_UNIVERSAL_TIME_OFFSET ( 1, 0, .AHEAD. ) ;
#65 = DATE_AND_TIME ( #114, #50 ) ;
#66 = FACE_OUTER_BOUND ( 'NONE', #253, .T. ) ;
#67 = CYLINDRICAL_SURFACE ( 'NONE', #256, 5.000000000000000888 ) ;
#68 = ORIENTED_EDGE ( 'NONE', *, *, #123, .F. ) ;
#69 = CARTESIAN_POINT ( 'NONE',  ( 0.000000000000000000, 0.000000000000000000, 1004.999999999999886 ) ) ;
#70 = EDGE_CURVE ( 'NONE', #6, #187, #229, .T. ) ;
#71 = APPROVAL_PERSON_ORGANIZATION ( #132, #74, #300 ) ;
#72 = DIRECTION ( 'NONE',  ( 0.000000000000000000, 0.000000000000000000, 1.000000000000000000 ) ) ;
#73 = CARTESIAN_POINT ( 'NONE',  ( -5.000000000000000888, 0.000000000000000000, 1004.999999999999886 ) ) ;
#74 = APPROVAL ( #234, 'NEURÈENÝ' ) ;
#75 = VERTEX_POINT ( 'NONE', #78 ) ;
#76 = VECTOR ( 'NONE', #236, 1000.000000000000000 ) ;
#77 = CARTESIAN_POINT ( 'NONE',  ( 5.200000000000001066, 0.000000000000000000, 5.199999999999982414 ) ) ;
#78 = CARTESIAN_POINT ( 'NONE',  ( -5.200000000000001066, 6.368163355566237368E-16, 4.999999999999991118 ) ) ;
#79 = EDGE_CURVE ( 'NONE', #187, #152, #276, .T. ) ;
#80 = CARTESIAN_POINT ( 'NONE',  ( 0.000000000000000000, 0.000000000000000000, 5.199999999999982414 ) ) ;
#81 = CARTESIAN_POINT ( 'NONE',  ( 0.000000000000000000, 0.000000000000000000, 5.199999999999982414 ) ) ;
#82 = ORIENTED_EDGE ( 'NONE', *, *, #147, .T. ) ;
#83 = LOCAL_TIME ( 11, 53, 35.00000000000000000, #140 ) ;
#84 = CIRCLE ( 'NONE', #169, 8.000000000000000000 ) ;
#85 = CARTESIAN_POINT ( 'NONE',  ( 0.000000000000000000, 0.000000000000000000, 5.000000000000000000 ) ) ;
#86 = CARTESIAN_POINT ( 'NONE',  ( 0.000000000000000000, 0.000000000000000000, 0.000000000000000000 ) ) ;
#87 = ADVANCED_BREP_SHAPE_REPRESENTATION ( '6266', ( #196, #293 ), #287 ) ;
#88 = CARTESIAN_POINT ( 'NONE',  ( 0.000000000000000000, 0.000000000000000000, 0.000000000000000000 ) ) ;
#89 = ORIENTED_EDGE ( 'NONE', *, *, #17, .F. ) ;
#90 = DIRECTION ( 'NONE',  ( 0.000000000000000000, 0.000000000000000000, 1.000000000000000000 ) ) ;
#91 = PERSON_AND_ORGANIZATION_ROLE ( 'creator' ) ;
#92 = ORIENTED_EDGE ( 'NONE', *, *, #79, .T. ) ;
#93 = DIRECTION ( 'NONE',  ( -1.000000000000000000, 0.000000000000000000, 0.000000000000000000 ) ) ;
#94 = CC_DESIGN_PERSON_AND_ORGANIZATION_ASSIGNMENT ( #135, #112, ( #23 ) ) ;
#95 = ADVANCED_FACE ( 'NONE', ( #101 ), #246, .T. ) ;
#96 = VECTOR ( 'NONE', #239, 1000.000000000000000 ) ;
#97 = CARTESIAN_POINT ( 'NONE',  ( 5.000000000000000888, 6.123233995736767268E-16, 1004.999999999999886 ) ) ;
#98 = CC_DESIGN_DATE_AND_TIME_ASSIGNMENT ( #183, #138, ( #47 ) ) ;
#99 = CARTESIAN_POINT ( 'NONE',  ( -5.200000000000001066, 6.368163355566237368E-16, 5.199999999999982414 ) ) ;
#100 = PRODUCT ( '6266', '6266', '', ( #264 ) ) ;
#101 = FACE_OUTER_BOUND ( 'NONE', #25, .T. ) ;
#102 = DIRECTION ( 'NONE',  ( 1.000000000000000000, 0.000000000000000000, 0.000000000000000000 ) ) ;
#103 = CC_DESIGN_DATE_AND_TIME_ASSIGNMENT ( #36, #161, ( #226 ) ) ;
#104 = ORIENTED_EDGE ( 'NONE', *, *, #118, .F. ) ;
#105 = DIRECTION ( 'NONE',  ( 0.000000000000000000, 0.000000000000000000, 1.000000000000000000 ) ) ;
#106 = CARTESIAN_POINT ( 'NONE',  ( -5.000000000000000888, 0.000000000000000000, 1004.999999999999886 ) ) ;
#107 = AXIS2_PLACEMENT_3D ( 'NONE', #81, #251, #181 ) ;
#108 = EDGE_LOOP ( 'NONE', ( #104, #28, #223, #89 ) ) ;
#109 = DIRECTION ( 'NONE',  ( -1.000000000000000000, 0.000000000000000000, 0.000000000000000000 ) ) ;
#110 = CALENDAR_DATE ( 2022, 7, 7 ) ;
#111 = PERSON_AND_ORGANIZATION_ROLE ( 'design_owner' ) ;
#112 = PERSON_AND_ORGANIZATION_ROLE ( 'design_supplier' ) ;
#113 = ORIENTED_EDGE ( 'NONE', *, *, #42, .T. ) ;
#114 = CALENDAR_DATE ( 2022, 7, 7 ) ;
#115 = CC_DESIGN_PERSON_AND_ORGANIZATION_ASSIGNMENT ( #189, #129, ( #226 ) ) ;
#116 =( NAMED_UNIT ( * ) SI_UNIT ( $, .STERADIAN. ) SOLID_ANGLE_UNIT ( ) );
#117 = VERTEX_POINT ( 'NONE', #3 ) ;
#118 = EDGE_CURVE ( 'NONE', #152, #75, #26, .T. ) ;
#119 = CIRCLE ( 'NONE', #107, 5.000000000000000888 ) ;
#120 = TOROIDAL_SURFACE ( 'NONE', #167, 5.200000000000001066, 0.2000000000000000111 ) ;
#121 = ORIENTED_EDGE ( 'NONE', *, *, #70, .T. ) ;
#122 = DIRECTION ( 'NONE',  ( 0.000000000000000000, -1.000000000000000000, 0.000000000000000000 ) ) ;
#123 = EDGE_CURVE ( 'NONE', #152, #117, #119, .T. ) ;
#124 = DIRECTION ( 'NONE',  ( -0.000000000000000000, -0.000000000000000000, -1.000000000000000000 ) ) ;
#125 = PERSON ( 'NEURÈENÝ', 'NEURÈENÝ', 'NEURÈENÝ', ('NEURÈENÝ'), ('NEURÈENÝ'), ('NEURÈENÝ') ) ;
#126 = APPLICATION_CONTEXT ( 'configuration controlled 3d designs of mechanical parts and assemblies' ) ;
#127 = LOCAL_TIME ( 11, 53, 35.00000000000000000, #252 ) ;
#128 = ORIENTED_EDGE ( 'NONE', *, *, #147, .F. ) ;
#129 = PERSON_AND_ORGANIZATION_ROLE ( 'creator' ) ;
#130 = APPROVAL_ROLE ( '' ) ;
#131 = DIRECTION ( 'NONE',  ( 1.000000000000000000, 0.000000000000000000, 0.000000000000000000 ) ) ;
#132 = PERSON_AND_ORGANIZATION ( #125, #145 ) ;
#133 = CARTESIAN_POINT ( 'NONE',  ( 8.000000000000000000, 9.797174393178825657E-16, 5.000000000000000000 ) ) ;
#134 = CARTESIAN_POINT ( 'NONE',  ( 0.000000000000000000, 0.000000000000000000, 5.199999999999982414 ) ) ;
#135 = PERSON_AND_ORGANIZATION ( #125, #145 ) ;
#136 = DIRECTION ( 'NONE',  ( -0.000000000000000000, -0.000000000000000000, -1.000000000000000000 ) ) ;
#137 = DIRECTION ( 'NONE',  ( 1.000000000000000000, 0.000000000000000000, 0.000000000000000000 ) ) ;
#138 = DATE_TIME_ROLE ( 'classification_date' ) ;
#139 = EDGE_CURVE ( 'NONE', #249, #245, #180, .T. ) ;
#140 = COORDINATED_UNIVERSAL_TIME_OFFSET ( 1, 0, .AHEAD. ) ;
#141 = LOCAL_TIME ( 11, 53, 35.00000000000000000, #64 ) ;
#142 = CC_DESIGN_PERSON_AND_ORGANIZATION_ASSIGNMENT ( #205, #91, ( #23 ) ) ;
#143 = ORIENTED_EDGE ( 'NONE', *, *, #178, .T. ) ;
#144 = DIRECTION ( 'NONE',  ( -1.000000000000000000, 0.000000000000000000, 0.000000000000000000 ) ) ;
#145 = ORGANIZATION ( 'NEURÈENÝ', 'NEURÈENÝ', '' ) ;
#146 = ORIENTED_EDGE ( 'NONE', *, *, #123, .T. ) ;
#147 = EDGE_CURVE ( 'NONE', #245, #249, #84, .T. ) ;
#148 = CLOSED_SHELL ( 'NONE', ( #222, #292, #95, #263, #164, #193, #217, #32, #218 ) ) ;
#149 = DIRECTION ( 'NONE',  ( 0.000000000000000000, 0.000000000000000000, 1.000000000000000000 ) ) ;
#150 = DIRECTION ( 'NONE',  ( 0.000000000000000000, 0.000000000000000000, -1.000000000000000000 ) ) ;
#151 = DIRECTION ( 'NONE',  ( 0.000000000000000000, 0.000000000000000000, 1.000000000000000000 ) ) ;
#152 = VERTEX_POINT ( 'NONE', #8 ) ;
#153 = CARTESIAN_POINT ( 'NONE',  ( 0.000000000000000000, 0.000000000000000000, 5.000000000000000000 ) ) ;
#154 = EDGE_CURVE ( 'NONE', #198, #176, #207, .T. ) ;
#155 = CARTESIAN_POINT ( 'NONE',  ( 5.000000000000000888, 6.123233995736767268E-16, 1004.999999999999886 ) ) ;
#156 = CARTESIAN_POINT ( 'NONE',  ( 0.000000000000000000, 0.000000000000000000, 1004.999999999999886 ) ) ;
#157 = SECURITY_CLASSIFICATION_LEVEL ( 'unclassified' ) ;
#158 = ORIENTED_EDGE ( 'NONE', *, *, #139, .F. ) ;
#159 = APPROVAL_STATUS ( 'not_yet_approved' ) ;
#160 = CARTESIAN_POINT ( 'NONE',  ( 0.000000000000000000, 0.000000000000000000, 0.000000000000000000 ) ) ;
#161 = DATE_TIME_ROLE ( 'creation_date' ) ;
#162 = TOROIDAL_SURFACE ( 'NONE', #241, 5.200000000000001066, 0.2000000000000000111 ) ;
#163 =( LENGTH_UNIT ( ) NAMED_UNIT ( * ) SI_UNIT ( .MILLI., .METRE. ) );
#164 = ADVANCED_FACE ( 'NONE', ( #11, #39 ), #299, .T. ) ;
#165 = DATE_AND_TIME ( #212, #179 ) ;
#166 = ORIENTED_EDGE ( 'NONE', *, *, #174, .T. ) ;
#167 = AXIS2_PLACEMENT_3D ( 'NONE', #41, #210, #46 ) ;
#168 = DIRECTION ( 'NONE',  ( 1.000000000000000000, 0.000000000000000000, 0.000000000000000000 ) ) ;
#169 = AXIS2_PLACEMENT_3D ( 'NONE', #153, #280, #303 ) ;
#170 = APPROVAL ( #159, 'NEURÈENÝ' ) ;
#171 = DIRECTION ( 'NONE',  ( -0.000000000000000000, -0.000000000000000000, -1.000000000000000000 ) ) ;
#172 = DIRECTION ( 'NONE',  ( -0.000000000000000000, -0.000000000000000000, -1.000000000000000000 ) ) ;
#173 = ORIENTED_EDGE ( 'NONE', *, *, #79, .F. ) ;
#174 = EDGE_CURVE ( 'NONE', #245, #198, #278, .T. ) ;
#175 = CARTESIAN_POINT ( 'NONE',  ( 0.000000000000000000, 0.000000000000000000, 1004.999999999999886 ) ) ;
#176 = VERTEX_POINT ( 'NONE', #248 ) ;
#177 = CYLINDRICAL_SURFACE ( 'NONE', #22, 5.000000000000000888 ) ;
#178 = EDGE_CURVE ( 'NONE', #117, #152, #190, .T. ) ;
#179 = LOCAL_TIME ( 11, 53, 35.00000000000000000, #211 ) ;
#180 = CIRCLE ( 'NONE', #48, 8.000000000000000000 ) ;
#181 = DIRECTION ( 'NONE',  ( 1.000000000000000000, 0.000000000000000000, 0.000000000000000000 ) ) ;
#182 = CARTESIAN_POINT ( 'NONE',  ( -8.000000000000000000, 0.000000000000000000, 0.000000000000000000 ) ) ;
#183 = DATE_AND_TIME ( #33, #83 ) ;
#184 = VECTOR ( 'NONE', #172, 1000.000000000000000 ) ;
#185 = COORDINATED_UNIVERSAL_TIME_OFFSET ( 1, 0, .AHEAD. ) ;
#186 = DIRECTION ( 'NONE',  ( 0.000000000000000000, 0.000000000000000000, 1.000000000000000000 ) ) ;
#187 = VERTEX_POINT ( 'NONE', #106 ) ;
#188 = CC_DESIGN_PERSON_AND_ORGANIZATION_ASSIGNMENT ( #231, #12, ( #47 ) ) ;
#189 = PERSON_AND_ORGANIZATION ( #125, #145 ) ;
#190 = CIRCLE ( 'NONE', #274, 5.000000000000000888 ) ;
#191 = AXIS2_PLACEMENT_3D ( 'NONE', #19, #136, #93 ) ;
#192 = CIRCLE ( 'NONE', #57, 5.200000000000001066 ) ;
#193 = ADVANCED_FACE ( 'NONE', ( #66 ), #208, .F. ) ;
#194 = CARTESIAN_POINT ( 'NONE',  ( 0.000000000000000000, 0.000000000000000000, 5.000000000000000000 ) ) ;
#195 = AXIS2_PLACEMENT_3D ( 'NONE', #29, #55, #2 ) ;
#196 = MANIFOLD_SOLID_BREP ( 'Zaoblit1', #148 ) ;
#197 = AXIS2_PLACEMENT_3D ( 'NONE', #77, #122, #150 ) ;
#198 = VERTEX_POINT ( 'NONE', #182 ) ;
#199 = DIRECTION ( 'NONE',  ( 1.000000000000000000, 0.000000000000000000, 0.000000000000000000 ) ) ;
#200 = VECTOR ( 'NONE', #60, 1000.000000000000000 ) ;
#201 = ORIENTED_EDGE ( 'NONE', *, *, #139, .T. ) ;
#202 = CARTESIAN_POINT ( 'NONE',  ( 0.000000000000000000, 0.000000000000000000, 1004.999999999999886 ) ) ;
#203 = CC_DESIGN_PERSON_AND_ORGANIZATION_ASSIGNMENT ( #250, #111, ( #100 ) ) ;
#204 = DIRECTION ( 'NONE',  ( 1.000000000000000000, 0.000000000000000000, -0.000000000000000000 ) ) ;
#205 = PERSON_AND_ORGANIZATION ( #125, #145 ) ;
#206 = EDGE_LOOP ( 'NONE', ( #306, #272, #92, #146 ) ) ;
#207 = CIRCLE ( 'NONE', #266, 8.000000000000000000 ) ;
#208 = PLANE ( 'NONE',  #255 ) ;
#209 = CALENDAR_DATE ( 2022, 7, 7 ) ;
#210 = DIRECTION ( 'NONE',  ( 0.000000000000000000, 0.000000000000000000, 1.000000000000000000 ) ) ;
#211 = COORDINATED_UNIVERSAL_TIME_OFFSET ( 1, 0, .AHEAD. ) ;
#212 = CALENDAR_DATE ( 2022, 7, 7 ) ;
#213 = VERTEX_POINT ( 'NONE', #63 ) ;
#214 = LINE ( 'NONE', #305, #76 ) ;
#215 = AXIS2_PLACEMENT_3D ( 'NONE', #99, #227, #296 ) ;
#216 = APPLICATION_PROTOCOL_DEFINITION ( 'international standard', 'config_control_design', 1994, #126 ) ;
#217 = ADVANCED_FACE ( 'NONE', ( #43 ), #177, .T. ) ;
#218 = ADVANCED_FACE ( 'NONE', ( #257 ), #162, .F. ) ;
#219 = ORIENTED_EDGE ( 'NONE', *, *, #10, .F. ) ;
#220 = AXIS2_PLACEMENT_3D ( 'NONE', #269, #51, #144 ) ;
#221 = CARTESIAN_POINT ( 'NONE',  ( 0.000000000000000000, 0.000000000000000000, 5.000000000000000000 ) ) ;
#222 = ADVANCED_FACE ( 'NONE', ( #295 ), #120, .F. ) ;
#223 = ORIENTED_EDGE ( 'NONE', *, *, #10, .T. ) ;
#224 = DIRECTION ( 'NONE',  ( 1.000000000000000000, 0.000000000000000000, 0.000000000000000000 ) ) ;
#225 = ORIENTED_EDGE ( 'NONE', *, *, #70, .F. ) ;
#226 = PRODUCT_DEFINITION ( 'NEZNÁMÝ', '', #23, #44 ) ;
#227 = DIRECTION ( 'NONE',  ( 1.224646799147353207E-16, 1.000000000000000000, -0.000000000000000000 ) ) ;
#228 = PERSON_AND_ORGANIZATION ( #125, #145 ) ;
#229 = CIRCLE ( 'NONE', #270, 5.000000000000000888 ) ;
#230 = DIRECTION ( 'NONE',  ( 1.000000000000000000, 0.000000000000000000, 0.000000000000000000 ) ) ;
#231 = PERSON_AND_ORGANIZATION ( #125, #145 ) ;
#232 = DIRECTION ( 'NONE',  ( -1.000000000000000000, 0.000000000000000000, 0.000000000000000000 ) ) ;
#233 = DIRECTION ( 'NONE',  ( 0.000000000000000000, 0.000000000000000000, 1.000000000000000000 ) ) ;
#234 = APPROVAL_STATUS ( 'not_yet_approved' ) ;
#235 = EDGE_LOOP ( 'NONE', ( #82, #201 ) ) ;
#236 = DIRECTION ( 'NONE',  ( -0.000000000000000000, -0.000000000000000000, -1.000000000000000000 ) ) ;
#237 = DIRECTION ( 'NONE',  ( 0.000000000000000000, 0.000000000000000000, 1.000000000000000000 ) ) ;
#238 = PERSON_AND_ORGANIZATION ( #125, #145 ) ;
#239 = DIRECTION ( 'NONE',  ( -0.000000000000000000, -0.000000000000000000, -1.000000000000000000 ) ) ;
#240 = PRODUCT_RELATED_PRODUCT_CATEGORY ( 'detail', '', ( #100 ) ) ;
#241 = AXIS2_PLACEMENT_3D ( 'NONE', #80, #151, #247 ) ;
#242 = EDGE_LOOP ( 'NONE', ( #68, #37, #7, #219 ) ) ;
#243 = EDGE_LOOP ( 'NONE', ( #34, #121 ) ) ;
#244 = ORIENTED_EDGE ( 'NONE', *, *, #17, .T. ) ;
#245 = VERTEX_POINT ( 'NONE', #258 ) ;
#246 = CYLINDRICAL_SURFACE ( 'NONE', #220, 8.000000000000000000 ) ;
#247 = DIRECTION ( 'NONE',  ( 1.000000000000000000, 0.000000000000000000, 0.000000000000000000 ) ) ;
#248 = CARTESIAN_POINT ( 'NONE',  ( 8.000000000000000000, 9.797174393178825657E-16, 0.000000000000000000 ) ) ;
#249 = VERTEX_POINT ( 'NONE', #133 ) ;
#250 = PERSON_AND_ORGANIZATION ( #125, #145 ) ;
#251 = DIRECTION ( 'NONE',  ( 0.000000000000000000, 0.000000000000000000, 1.000000000000000000 ) ) ;
#252 = COORDINATED_UNIVERSAL_TIME_OFFSET ( 1, 0, .AHEAD. ) ;
#253 = EDGE_LOOP ( 'NONE', ( #297, #259 ) ) ;
#254 = APPROVAL_DATE_TIME ( #65, #170 ) ;
#255 = AXIS2_PLACEMENT_3D ( 'NONE', #160, #233, #59 ) ;
#256 = AXIS2_PLACEMENT_3D ( 'NONE', #69, #15, #232 ) ;
#257 = FACE_OUTER_BOUND ( 'NONE', #108, .T. ) ;
#258 = CARTESIAN_POINT ( 'NONE',  ( -8.000000000000000000, 0.000000000000000000, 5.000000000000000000 ) ) ;
#259 = ORIENTED_EDGE ( 'NONE', *, *, #1, .F. ) ;
#260 = APPLICATION_CONTEXT ( 'configuration controlled 3d designs of mechanical parts and assemblies' ) ;
#261 = UNCERTAINTY_MEASURE_WITH_UNIT (LENGTH_MEASURE( 1.000000000000000082E-05 ), #163, 'distance_accuracy_value', 'NONE');
#262 = CYLINDRICAL_SURFACE ( 'NONE', #191, 8.000000000000000000 ) ;
#263 = ADVANCED_FACE ( 'NONE', ( #301 ), #262, .T. ) ;
#264 = MECHANICAL_CONTEXT ( 'NONE', #126, 'mechanical' ) ;
#265 = CC_DESIGN_SECURITY_CLASSIFICATION ( #47, ( #23 ) ) ;
#266 = AXIS2_PLACEMENT_3D ( 'NONE', #88, #105, #137 ) ;
#267 = AXIS2_PLACEMENT_3D ( 'NONE', #175, #149, #224 ) ;
#268 = CC_DESIGN_APPROVAL ( #281, ( #23 ) ) ;
#269 = CARTESIAN_POINT ( 'NONE',  ( 0.000000000000000000, 0.000000000000000000, 5.000000000000000000 ) ) ;
#270 = AXIS2_PLACEMENT_3D ( 'NONE', #275, #52, #56 ) ;
#271 = EDGE_CURVE ( 'NONE', #249, #176, #214, .T. ) ;
#272 = ORIENTED_EDGE ( 'NONE', *, *, #24, .F. ) ;
#273 = ORIENTED_EDGE ( 'NONE', *, *, #271, .F. ) ;
#274 = AXIS2_PLACEMENT_3D ( 'NONE', #134, #237, #230 ) ;
#275 = CARTESIAN_POINT ( 'NONE',  ( 0.000000000000000000, 0.000000000000000000, 1004.999999999999886 ) ) ;
#276 = LINE ( 'NONE', #73, #184 ) ;
#277 = CARTESIAN_POINT ( 'NONE',  ( -8.000000000000000000, 0.000000000000000000, 5.000000000000000000 ) ) ;
#278 = LINE ( 'NONE', #277, #200 ) ;
#279 = ORIENTED_EDGE ( 'NONE', *, *, #174, .F. ) ;
#280 = DIRECTION ( 'NONE',  ( 0.000000000000000000, 0.000000000000000000, 1.000000000000000000 ) ) ;
#281 = APPROVAL ( #282, 'NEURÈENÝ' ) ;
#282 = APPROVAL_STATUS ( 'not_yet_approved' ) ;
#283 = FACE_OUTER_BOUND ( 'NONE', #291, .T. ) ;
#284 = DIRECTION ( 'NONE',  ( 0.000000000000000000, 0.000000000000000000, 1.000000000000000000 ) ) ;
#285 = EDGE_LOOP ( 'NONE', ( #273, #128, #166, #18 ) ) ;
#286 = APPROVAL_ROLE ( '' ) ;
#287 =( GEOMETRIC_REPRESENTATION_CONTEXT ( 3 ) GLOBAL_UNCERTAINTY_ASSIGNED_CONTEXT ( ( #261 ) ) GLOBAL_UNIT_ASSIGNED_CONTEXT ( ( #163, #307, #116 ) ) REPRESENTATION_CONTEXT ( 'NONE', 'WORKASPACE' ) );
#288 = EDGE_CURVE ( 'NONE', #6, #117, #45, .T. ) ;
#289 = PLANE ( 'NONE',  #302 ) ;
#290 = ORIENTED_EDGE ( 'NONE', *, *, #1, .T. ) ;
#291 = EDGE_LOOP ( 'NONE', ( #225, #58, #143, #173 ) ) ;
#292 = ADVANCED_FACE ( 'NONE', ( #283 ), #67, .T. ) ;
#293 = AXIS2_PLACEMENT_3D ( 'NONE', #86, #90, #168 ) ;
#294 = DIRECTION ( 'NONE',  ( 1.000000000000000000, 0.000000000000000000, -0.000000000000000000 ) ) ;
#295 = FACE_OUTER_BOUND ( 'NONE', #242, .T. ) ;
#296 = DIRECTION ( 'NONE',  ( -1.000000000000000000, 1.224646799147353454E-16, 0.000000000000000000 ) ) ;
#297 = ORIENTED_EDGE ( 'NONE', *, *, #154, .F. ) ;
#298 = CC_DESIGN_APPROVAL ( #74, ( #47 ) ) ;
#299 = PLANE ( 'NONE',  #13 ) ;
#300 = APPROVAL_ROLE ( '' ) ;
#301 = FACE_OUTER_BOUND ( 'NONE', #285, .T. ) ;
#302 = AXIS2_PLACEMENT_3D ( 'NONE', #202, #72, #294 ) ;
#303 = DIRECTION ( 'NONE',  ( 1.000000000000000000, 0.000000000000000000, 0.000000000000000000 ) ) ;
#304 = SHAPE_DEFINITION_REPRESENTATION ( #54, #87 ) ;
#305 = CARTESIAN_POINT ( 'NONE',  ( 8.000000000000000000, 9.797174393178825657E-16, 5.000000000000000000 ) ) ;
#306 = ORIENTED_EDGE ( 'NONE', *, *, #288, .F. ) ;
#307 =( NAMED_UNIT ( * ) PLANE_ANGLE_UNIT ( ) SI_UNIT ( $, .RADIAN. ) );
ENDSEC;
END-ISO-10303-21;
