ISO-10303-21;
HEADER;
FILE_DESCRIPTION (( 'STEP AP203' ),
    '1' );
FILE_NAME ('4cfa.STEP',
    '2022-07-07T10:26:54',
    ( '' ),
    ( '' ),
    'SwSTEP 2.0',
    'SolidWorks 2019',
    '' );
FILE_SCHEMA (( 'CONFIG_CONTROL_DESIGN' ));
ENDSEC;

DATA;
#1 = EDGE_LOOP ( 'NONE', ( #81, #68 ) ) ;
#2 = AXIS2_PLACEMENT_3D ( 'NONE', #156, #129, #224 ) ;
#3 = LOCAL_TIME ( 12, 26, 54.00000000000000000, #163 ) ;
#4 = DIRECTION ( 'NONE',  ( 1.000000000000000000, 0.000000000000000000, -0.000000000000000000 ) ) ;
#5 = CARTESIAN_POINT ( 'NONE',  ( -3.500000000000000444, 0.000000000000000000, 0.000000000000000000 ) ) ;
#6 = DIRECTION ( 'NONE',  ( -1.000000000000000000, 1.224646799147354686E-16, 0.000000000000000000 ) ) ;
#7 = AXIS2_PLACEMENT_3D ( 'NONE', #300, #267, #275 ) ;
#8 = ORIENTED_EDGE ( 'NONE', *, *, #144, .F. ) ;
#9 = DIRECTION ( 'NONE',  ( 0.000000000000000000, 0.000000000000000000, 1.000000000000000000 ) ) ;
#10 = DIRECTION ( 'NONE',  ( -0.000000000000000000, -0.000000000000000000, -1.000000000000000000 ) ) ;
#11 = DIRECTION ( 'NONE',  ( 1.000000000000000000, 0.000000000000000000, 0.000000000000000000 ) ) ;
#12 = CARTESIAN_POINT ( 'NONE',  ( 3.500000000000000444, 4.286263797015737088E-16, 0.000000000000000000 ) ) ;
#13 = LINE ( 'NONE', #249, #213 ) ;
#14 = CIRCLE ( 'NONE', #190, 0.1999999999999998723 ) ;
#15 = APPROVAL_PERSON_ORGANIZATION ( #112, #98, #141 ) ;
#16 = DIRECTION ( 'NONE',  ( -0.000000000000000000, -0.000000000000000000, -1.000000000000000000 ) ) ;
#17 = PLANE ( 'NONE',  #255 ) ;
#18 = APPLICATION_PROTOCOL_DEFINITION ( 'international standard', 'config_control_design', 1994, #113 ) ;
#19 = DATE_AND_TIME ( #231, #265 ) ;
#20 = PERSON_AND_ORGANIZATION ( #57, #71 ) ;
#21 = APPROVAL_ROLE ( '' ) ;
#22 = CIRCLE ( 'NONE', #2, 0.2000000000000000944 ) ;
#23 = LOCAL_TIME ( 12, 26, 54.00000000000000000, #117 ) ;
#24 = EDGE_CURVE ( 'NONE', #99, #103, #183, .T. ) ;
#25 = ORIENTED_EDGE ( 'NONE', *, *, #219, .F. ) ;
#26 = ORIENTED_EDGE ( 'NONE', *, *, #88, .F. ) ;
#27 = ORIENTED_EDGE ( 'NONE', *, *, #168, .F. ) ;
#28 = CARTESIAN_POINT ( 'NONE',  ( 3.500000000000000444, 4.286263797015737088E-16, 3.000000000000000000 ) ) ;
#29 = DIRECTION ( 'NONE',  ( 0.000000000000000000, 0.000000000000000000, 1.000000000000000000 ) ) ;
#30 = DIRECTION ( 'NONE',  ( 0.000000000000000000, 0.000000000000000000, 1.000000000000000000 ) ) ;
#31 = MANIFOLD_SOLID_BREP ( 'Zaoblit1', #153 ) ;
#32 =( NAMED_UNIT ( * ) PLANE_ANGLE_UNIT ( ) SI_UNIT ( $, .RADIAN. ) );
#33 = ORIENTED_EDGE ( 'NONE', *, *, #93, .T. ) ;
#34 = DIRECTION ( 'NONE',  ( 0.000000000000000000, 0.000000000000000000, 1.000000000000000000 ) ) ;
#35 = DIRECTION ( 'NONE',  ( 1.000000000000000000, 0.000000000000000000, 0.000000000000000000 ) ) ;
#36 = DIRECTION ( 'NONE',  ( 0.000000000000000000, 0.000000000000000000, 1.000000000000000000 ) ) ;
#37 = CARTESIAN_POINT ( 'NONE',  ( 0.000000000000000000, 0.000000000000000000, 803.0000000000000000 ) ) ;
#38 = FACE_BOUND ( 'NONE', #1, .T. ) ;
#39 = VECTOR ( 'NONE', #180, 1000.000000000000000 ) ;
#40 = PERSON_AND_ORGANIZATION_ROLE ( 'creator' ) ;
#41 = ADVANCED_FACE ( 'NONE', ( #148 ), #241, .T. ) ;
#42 = PERSON_AND_ORGANIZATION ( #57, #71 ) ;
#43 = TOROIDAL_SURFACE ( 'NONE', #214, 1.950000000000000178, 0.2000000000000000111 ) ;
#44 = EDGE_CURVE ( 'NONE', #47, #48, #303, .T. ) ;
#45 = PERSON_AND_ORGANIZATION ( #57, #71 ) ;
#46 = EDGE_CURVE ( 'NONE', #150, #261, #169, .T. ) ;
#47 = VERTEX_POINT ( 'NONE', #124 ) ;
#48 = VERTEX_POINT ( 'NONE', #201 ) ;
#49 = CC_DESIGN_PERSON_AND_ORGANIZATION_ASSIGNMENT ( #212, #186, ( #108 ) ) ;
#50 = CC_DESIGN_APPROVAL ( #98, ( #285 ) ) ;
#51 = DIRECTION ( 'NONE',  ( 1.000000000000000000, 0.000000000000000000, 0.000000000000000000 ) ) ;
#52 = ORIENTED_EDGE ( 'NONE', *, *, #46, .T. ) ;
#53 = EDGE_CURVE ( 'NONE', #121, #197, #206, .T. ) ;
#54 = DIRECTION ( 'NONE',  ( 1.000000000000000000, 0.000000000000000000, -0.000000000000000000 ) ) ;
#55 = CARTESIAN_POINT ( 'NONE',  ( 0.000000000000000000, 0.000000000000000000, 0.000000000000000000 ) ) ;
#56 = PRODUCT_RELATED_PRODUCT_CATEGORY ( 'detail', '', ( #115 ) ) ;
#57 = PERSON ( 'NEURÈENÝ', 'NEURÈENÝ', 'NEURÈENÝ', ('NEURÈENÝ'), ('NEURÈENÝ'), ('NEURÈENÝ') ) ;
#58 = CARTESIAN_POINT ( 'NONE',  ( 0.000000000000000000, 0.000000000000000000, 803.0000000000000000 ) ) ;
#59 = CARTESIAN_POINT ( 'NONE',  ( 0.000000000000000000, 0.000000000000000000, 3.199999999999980638 ) ) ;
#60 = EDGE_LOOP ( 'NONE', ( #171, #120 ) ) ;
#61 = PERSON_AND_ORGANIZATION_ROLE ( 'design_owner' ) ;
#62 = EDGE_CURVE ( 'NONE', #69, #74, #282, .T. ) ;
#63 = PERSON_AND_ORGANIZATION ( #57, #71 ) ;
#64 = DATE_AND_TIME ( #280, #237 ) ;
#65 = CC_DESIGN_PERSON_AND_ORGANIZATION_ASSIGNMENT ( #164, #40, ( #291 ) ) ;
#66 = CC_DESIGN_SECURITY_CLASSIFICATION ( #285, ( #291 ) ) ;
#67 = CARTESIAN_POINT ( 'NONE',  ( 0.000000000000000000, 0.000000000000000000, 0.000000000000000000 ) ) ;
#68 = ORIENTED_EDGE ( 'NONE', *, *, #44, .T. ) ;
#69 = VERTEX_POINT ( 'NONE', #12 ) ;
#70 = CIRCLE ( 'NONE', #165, 1.750000000000000000 ) ;
#71 = ORGANIZATION ( 'NEURÈENÝ', 'NEURÈENÝ', '' ) ;
#72 = ORIENTED_EDGE ( 'NONE', *, *, #93, .F. ) ;
#73 = CC_DESIGN_PERSON_AND_ORGANIZATION_ASSIGNMENT ( #63, #61, ( #115 ) ) ;
#74 = VERTEX_POINT ( 'NONE', #5 ) ;
#75 = ORIENTED_EDGE ( 'NONE', *, *, #144, .T. ) ;
#76 = CIRCLE ( 'NONE', #139, 1.750000000000000000 ) ;
#77 = AXIS2_PLACEMENT_3D ( 'NONE', #123, #29, #87 ) ;
#78 = ORIENTED_EDGE ( 'NONE', *, *, #53, .F. ) ;
#79 = EDGE_CURVE ( 'NONE', #197, #69, #289, .T. ) ;
#80 =( LENGTH_UNIT ( ) NAMED_UNIT ( * ) SI_UNIT ( .MILLI., .METRE. ) );
#81 = ORIENTED_EDGE ( 'NONE', *, *, #287, .T. ) ;
#82 = LINE ( 'NONE', #298, #290 ) ;
#83 = FACE_OUTER_BOUND ( 'NONE', #235, .T. ) ;
#84 = CARTESIAN_POINT ( 'NONE',  ( -1.750000000000000000, 0.000000000000000000, 3.199999999999980638 ) ) ;
#85 = DIRECTION ( 'NONE',  ( -1.000000000000000000, 0.000000000000000000, 0.000000000000000000 ) ) ;
#86 = CARTESIAN_POINT ( 'NONE',  ( 1.750000000000000000, 2.143131898507868297E-16, 3.199999999999980638 ) ) ;
#87 = DIRECTION ( 'NONE',  ( 1.000000000000000000, 0.000000000000000000, 0.000000000000000000 ) ) ;
#88 = EDGE_CURVE ( 'NONE', #103, #261, #100, .T. ) ;
#89 = APPROVAL_STATUS ( 'not_yet_approved' ) ;
#90 = AXIS2_PLACEMENT_3D ( 'NONE', #274, #270, #200 ) ;
#91 = APPROVAL_DATE_TIME ( #230, #253 ) ;
#92 = APPLICATION_PROTOCOL_DEFINITION ( 'international standard', 'config_control_design', 1994, #278 ) ;
#93 = EDGE_CURVE ( 'NONE', #261, #150, #70, .T. ) ;
#94 = DATE_AND_TIME ( #166, #110 ) ;
#95 = EDGE_LOOP ( 'NONE', ( #234, #191 ) ) ;
#96 = DATE_TIME_ROLE ( 'creation_date' ) ;
#97 = ORIENTED_EDGE ( 'NONE', *, *, #88, .T. ) ;
#98 = APPROVAL ( #89, 'NEURÈENÝ' ) ;
#99 = VERTEX_POINT ( 'NONE', #220 ) ;
#100 = LINE ( 'NONE', #194, #187 ) ;
#101 = TOROIDAL_SURFACE ( 'NONE', #177, 1.950000000000000178, 0.2000000000000000111 ) ;
#102 = FACE_OUTER_BOUND ( 'NONE', #239, .T. ) ;
#103 = VERTEX_POINT ( 'NONE', #198 ) ;
#104 = CARTESIAN_POINT ( 'NONE',  ( 0.000000000000000000, 0.000000000000000000, 3.000000000000000000 ) ) ;
#105 = DIRECTION ( 'NONE',  ( 1.000000000000000000, 0.000000000000000000, 0.000000000000000000 ) ) ;
#106 = CYLINDRICAL_SURFACE ( 'NONE', #208, 3.500000000000000444 ) ;
#107 = DIRECTION ( 'NONE',  ( 0.000000000000000000, 0.000000000000000000, 1.000000000000000000 ) ) ;
#108 = PRODUCT_DEFINITION ( 'NEZNÁMÝ', '', #291, #215 ) ;
#109 = CARTESIAN_POINT ( 'NONE',  ( 0.000000000000000000, 0.000000000000000000, 3.000000000000000000 ) ) ;
#110 = LOCAL_TIME ( 12, 26, 54.00000000000000000, #258 ) ;
#111 = CARTESIAN_POINT ( 'NONE',  ( 3.500000000000000444, 4.286263797015737088E-16, 3.000000000000000000 ) ) ;
#112 = PERSON_AND_ORGANIZATION ( #57, #71 ) ;
#113 = APPLICATION_CONTEXT ( 'configuration controlled 3d designs of mechanical parts and assemblies' ) ;
#114 = APPROVAL_STATUS ( 'not_yet_approved' ) ;
#115 = PRODUCT ( '4cfa', '4cfa', '', ( #232 ) ) ;
#116 = PERSON_AND_ORGANIZATION_ROLE ( 'design_supplier' ) ;
#117 = COORDINATED_UNIVERSAL_TIME_OFFSET ( 1, 0, .AHEAD. ) ;
#118 = EDGE_LOOP ( 'NONE', ( #72, #75, #263, #27 ) ) ;
#119 = ORIENTED_EDGE ( 'NONE', *, *, #24, .F. ) ;
#120 = ORIENTED_EDGE ( 'NONE', *, *, #62, .F. ) ;
#121 = VERTEX_POINT ( 'NONE', #297 ) ;
#122 = ORIENTED_EDGE ( 'NONE', *, *, #168, .T. ) ;
#123 = CARTESIAN_POINT ( 'NONE',  ( 0.000000000000000000, 0.000000000000000000, 0.000000000000000000 ) ) ;
#124 = CARTESIAN_POINT ( 'NONE',  ( -1.950000000000000178, 2.388061258337339136E-16, 2.999999999999990674 ) ) ;
#125 = AXIS2_PLACEMENT_3D ( 'NONE', #279, #149, #301 ) ;
#126 = FACE_OUTER_BOUND ( 'NONE', #118, .T. ) ;
#127 = ADVANCED_FACE ( 'NONE', ( #83 ), #273, .T. ) ;
#128 = CARTESIAN_POINT ( 'NONE',  ( 0.000000000000000000, 0.000000000000000000, 803.0000000000000000 ) ) ;
#129 = DIRECTION ( 'NONE',  ( 0.000000000000000000, -1.000000000000000000, 0.000000000000000000 ) ) ;
#130 = ORIENTED_EDGE ( 'NONE', *, *, #257, .F. ) ;
#131 = CARTESIAN_POINT ( 'NONE',  ( 0.000000000000000000, 0.000000000000000000, 3.000000000000000000 ) ) ;
#132 = CYLINDRICAL_SURFACE ( 'NONE', #271, 1.750000000000000000 ) ;
#133 = ADVANCED_FACE ( 'NONE', ( #245 ), #132, .T. ) ;
#134 = FACE_OUTER_BOUND ( 'NONE', #95, .T. ) ;
#135 = CIRCLE ( 'NONE', #77, 3.500000000000000444 ) ;
#136 = PERSON_AND_ORGANIZATION_ROLE ( 'classification_officer' ) ;
#137 = APPROVAL_DATE_TIME ( #252, #179 ) ;
#138 = COORDINATED_UNIVERSAL_TIME_OFFSET ( 1, 0, .AHEAD. ) ;
#139 = AXIS2_PLACEMENT_3D ( 'NONE', #154, #34, #178 ) ;
#140 = AXIS2_PLACEMENT_3D ( 'NONE', #67, #210, #162 ) ;
#141 = APPROVAL_ROLE ( '' ) ;
#142 = CC_DESIGN_DATE_AND_TIME_ASSIGNMENT ( #94, #96, ( #108 ) ) ;
#143 = ORIENTED_EDGE ( 'NONE', *, *, #277, .T. ) ;
#144 = EDGE_CURVE ( 'NONE', #261, #47, #14, .T. ) ;
#145 = EDGE_LOOP ( 'NONE', ( #170, #174 ) ) ;
#146 = AXIS2_PLACEMENT_3D ( 'NONE', #58, #155, #85 ) ;
#147 = CIRCLE ( 'NONE', #299, 1.950000000000000178 ) ;
#148 = FACE_OUTER_BOUND ( 'NONE', #145, .T. ) ;
#149 = DIRECTION ( 'NONE',  ( -0.000000000000000000, -0.000000000000000000, -1.000000000000000000 ) ) ;
#150 = VERTEX_POINT ( 'NONE', #86 ) ;
#151 = DIRECTION ( 'NONE',  ( -0.000000000000000000, -0.000000000000000000, -1.000000000000000000 ) ) ;
#152 = CARTESIAN_POINT ( 'NONE',  ( 0.000000000000000000, 0.000000000000000000, 3.199999999999980638 ) ) ;
#153 = CLOSED_SHELL ( 'NONE', ( #188, #127, #281, #217, #199, #209, #133, #41, #192 ) ) ;
#154 = CARTESIAN_POINT ( 'NONE',  ( 0.000000000000000000, 0.000000000000000000, 803.0000000000000000 ) ) ;
#155 = DIRECTION ( 'NONE',  ( -0.000000000000000000, -0.000000000000000000, -1.000000000000000000 ) ) ;
#156 = CARTESIAN_POINT ( 'NONE',  ( 1.950000000000000178, 0.000000000000000000, 3.199999999999980638 ) ) ;
#157 = CARTESIAN_POINT ( 'NONE',  ( -1.950000000000000178, 2.388061258337339136E-16, 3.199999999999980638 ) ) ;
#158 = EDGE_CURVE ( 'NONE', #103, #99, #76, .T. ) ;
#159 = DIRECTION ( 'NONE',  ( 1.000000000000000000, 0.000000000000000000, -0.000000000000000000 ) ) ;
#160 = APPROVAL_STATUS ( 'not_yet_approved' ) ;
#161 = ADVANCED_BREP_SHAPE_REPRESENTATION ( '4cfa', ( #31, #140 ), #250 ) ;
#162 = DIRECTION ( 'NONE',  ( 1.000000000000000000, 0.000000000000000000, 0.000000000000000000 ) ) ;
#163 = COORDINATED_UNIVERSAL_TIME_OFFSET ( 1, 0, .AHEAD. ) ;
#164 = PERSON_AND_ORGANIZATION ( #57, #71 ) ;
#165 = AXIS2_PLACEMENT_3D ( 'NONE', #152, #293, #105 ) ;
#166 = CALENDAR_DATE ( 2022, 7, 7 ) ;
#167 = EDGE_CURVE ( 'NONE', #99, #150, #82, .T. ) ;
#168 = EDGE_CURVE ( 'NONE', #150, #48, #22, .T. ) ;
#169 = CIRCLE ( 'NONE', #304, 1.750000000000000000 ) ;
#170 = ORIENTED_EDGE ( 'NONE', *, *, #158, .T. ) ;
#171 = ORIENTED_EDGE ( 'NONE', *, *, #277, .F. ) ;
#172 = DIRECTION ( 'NONE',  ( 0.000000000000000000, 0.000000000000000000, 1.000000000000000000 ) ) ;
#173 = CARTESIAN_POINT ( 'NONE',  ( 0.000000000000000000, 0.000000000000000000, 3.000000000000000000 ) ) ;
#174 = ORIENTED_EDGE ( 'NONE', *, *, #24, .T. ) ;
#175 = FACE_OUTER_BOUND ( 'NONE', #60, .T. ) ;
#176 = ORIENTED_EDGE ( 'NONE', *, *, #79, .T. ) ;
#177 = AXIS2_PLACEMENT_3D ( 'NONE', #296, #9, #11 ) ;
#178 = DIRECTION ( 'NONE',  ( 1.000000000000000000, 0.000000000000000000, 0.000000000000000000 ) ) ;
#179 = APPROVAL ( #160, 'NEURÈENÝ' ) ;
#180 = DIRECTION ( 'NONE',  ( -0.000000000000000000, -0.000000000000000000, -1.000000000000000000 ) ) ;
#181 = DIRECTION ( 'NONE',  ( -0.000000000000000000, -0.000000000000000000, -1.000000000000000000 ) ) ;
#182 = CYLINDRICAL_SURFACE ( 'NONE', #125, 3.500000000000000444 ) ;
#183 = CIRCLE ( 'NONE', #228, 1.750000000000000000 ) ;
#184 = COORDINATED_UNIVERSAL_TIME_OFFSET ( 1, 0, .AHEAD. ) ;
#185 = SHAPE_DEFINITION_REPRESENTATION ( #246, #161 ) ;
#186 = PERSON_AND_ORGANIZATION_ROLE ( 'creator' ) ;
#187 = VECTOR ( 'NONE', #10, 1000.000000000000000 ) ;
#188 = ADVANCED_FACE ( 'NONE', ( #126 ), #101, .F. ) ;
#189 = ORIENTED_EDGE ( 'NONE', *, *, #44, .F. ) ;
#190 = AXIS2_PLACEMENT_3D ( 'NONE', #157, #248, #6 ) ;
#191 = ORIENTED_EDGE ( 'NONE', *, *, #257, .T. ) ;
#192 = ADVANCED_FACE ( 'NONE', ( #294 ), #43, .F. ) ;
#193 = DIRECTION ( 'NONE',  ( 0.000000000000000000, 0.000000000000000000, 1.000000000000000000 ) ) ;
#194 = CARTESIAN_POINT ( 'NONE',  ( -1.750000000000000000, 0.000000000000000000, 803.0000000000000000 ) ) ;
#195 = APPROVAL_PERSON_ORGANIZATION ( #20, #253, #306 ) ;
#196 = DIRECTION ( 'NONE',  ( -1.000000000000000000, 0.000000000000000000, 0.000000000000000000 ) ) ;
#197 = VERTEX_POINT ( 'NONE', #111 ) ;
#198 = CARTESIAN_POINT ( 'NONE',  ( -1.750000000000000000, 0.000000000000000000, 803.0000000000000000 ) ) ;
#199 = ADVANCED_FACE ( 'NONE', ( #38, #134 ), #17, .T. ) ;
#200 = DIRECTION ( 'NONE',  ( 1.000000000000000000, 0.000000000000000000, 0.000000000000000000 ) ) ;
#201 = CARTESIAN_POINT ( 'NONE',  ( 1.950000000000000178, 0.000000000000000000, 2.999999999999990674 ) ) ;
#202 = FACE_OUTER_BOUND ( 'NONE', #286, .T. ) ;
#203 = DIRECTION ( 'NONE',  ( 0.000000000000000000, 0.000000000000000000, 1.000000000000000000 ) ) ;
#204 =( NAMED_UNIT ( * ) SI_UNIT ( $, .STERADIAN. ) SOLID_ANGLE_UNIT ( ) );
#205 = AXIS2_PLACEMENT_3D ( 'NONE', #128, #172, #4 ) ;
#206 = CIRCLE ( 'NONE', #7, 3.500000000000000444 ) ;
#207 = APPROVAL_DATE_TIME ( #19, #98 ) ;
#208 = AXIS2_PLACEMENT_3D ( 'NONE', #109, #151, #196 ) ;
#209 = ADVANCED_FACE ( 'NONE', ( #175 ), #268, .F. ) ;
#210 = DIRECTION ( 'NONE',  ( 0.000000000000000000, 0.000000000000000000, 1.000000000000000000 ) ) ;
#211 = SECURITY_CLASSIFICATION_LEVEL ( 'unclassified' ) ;
#212 = PERSON_AND_ORGANIZATION ( #57, #71 ) ;
#213 = VECTOR ( 'NONE', #302, 1000.000000000000000 ) ;
#214 = AXIS2_PLACEMENT_3D ( 'NONE', #59, #36, #240 ) ;
#215 = DESIGN_CONTEXT ( 'detailed design', #278, 'design' ) ;
#216 = ORIENTED_EDGE ( 'NONE', *, *, #158, .F. ) ;
#217 = ADVANCED_FACE ( 'NONE', ( #102 ), #106, .T. ) ;
#218 = ORIENTED_EDGE ( 'NONE', *, *, #219, .T. ) ;
#219 = EDGE_CURVE ( 'NONE', #121, #74, #13, .T. ) ;
#220 = CARTESIAN_POINT ( 'NONE',  ( 1.750000000000000000, 2.143131898507868297E-16, 803.0000000000000000 ) ) ;
#221 = DIRECTION ( 'NONE',  ( -0.000000000000000000, -0.000000000000000000, -1.000000000000000000 ) ) ;
#222 = CC_DESIGN_PERSON_AND_ORGANIZATION_ASSIGNMENT ( #251, #136, ( #285 ) ) ;
#223 = DIRECTION ( 'NONE',  ( 1.000000000000000000, 0.000000000000000000, 0.000000000000000000 ) ) ;
#224 = DIRECTION ( 'NONE',  ( 0.000000000000000000, 0.000000000000000000, -1.000000000000000000 ) ) ;
#225 = CARTESIAN_POINT ( 'NONE',  ( 0.000000000000000000, 0.000000000000000000, 3.199999999999980638 ) ) ;
#226 = DIRECTION ( 'NONE',  ( 0.000000000000000000, 0.000000000000000000, 1.000000000000000000 ) ) ;
#227 = DIRECTION ( 'NONE',  ( -1.000000000000000000, 0.000000000000000000, 0.000000000000000000 ) ) ;
#228 = AXIS2_PLACEMENT_3D ( 'NONE', #238, #107, #35 ) ;
#229 = CC_DESIGN_DATE_AND_TIME_ASSIGNMENT ( #64, #256, ( #285 ) ) ;
#230 = DATE_AND_TIME ( #233, #3 ) ;
#231 = CALENDAR_DATE ( 2022, 7, 7 ) ;
#232 = MECHANICAL_CONTEXT ( 'NONE', #113, 'mechanical' ) ;
#233 = CALENDAR_DATE ( 2022, 7, 7 ) ;
#234 = ORIENTED_EDGE ( 'NONE', *, *, #53, .T. ) ;
#235 = EDGE_LOOP ( 'NONE', ( #119, #307, #52, #26 ) ) ;
#236 = AXIS2_PLACEMENT_3D ( 'NONE', #173, #266, #51 ) ;
#237 = LOCAL_TIME ( 12, 26, 54.00000000000000000, #138 ) ;
#238 = CARTESIAN_POINT ( 'NONE',  ( 0.000000000000000000, 0.000000000000000000, 803.0000000000000000 ) ) ;
#239 = EDGE_LOOP ( 'NONE', ( #259, #78, #218, #143 ) ) ;
#240 = DIRECTION ( 'NONE',  ( 1.000000000000000000, 0.000000000000000000, 0.000000000000000000 ) ) ;
#241 = PLANE ( 'NONE',  #205 ) ;
#242 = CIRCLE ( 'NONE', #90, 3.500000000000000444 ) ;
#243 = ORIENTED_EDGE ( 'NONE', *, *, #46, .F. ) ;
#244 = AXIS2_PLACEMENT_3D ( 'NONE', #247, #226, #54 ) ;
#245 = FACE_OUTER_BOUND ( 'NONE', #288, .T. ) ;
#246 = PRODUCT_DEFINITION_SHAPE ( 'NONE', 'NONE',  #108 ) ;
#247 = CARTESIAN_POINT ( 'NONE',  ( 0.000000000000000000, 0.000000000000000000, 0.000000000000000000 ) ) ;
#248 = DIRECTION ( 'NONE',  ( 1.224646799147353207E-16, 1.000000000000000000, -0.000000000000000000 ) ) ;
#249 = CARTESIAN_POINT ( 'NONE',  ( -3.500000000000000444, 0.000000000000000000, 3.000000000000000000 ) ) ;
#250 =( GEOMETRIC_REPRESENTATION_CONTEXT ( 3 ) GLOBAL_UNCERTAINTY_ASSIGNED_CONTEXT ( ( #292 ) ) GLOBAL_UNIT_ASSIGNED_CONTEXT ( ( #80, #32, #204 ) ) REPRESENTATION_CONTEXT ( 'NONE', 'WORKASPACE' ) );
#251 = PERSON_AND_ORGANIZATION ( #57, #71 ) ;
#252 = DATE_AND_TIME ( #254, #23 ) ;
#253 = APPROVAL ( #114, 'NEURÈENÝ' ) ;
#254 = CALENDAR_DATE ( 2022, 7, 7 ) ;
#255 = AXIS2_PLACEMENT_3D ( 'NONE', #131, #203, #159 ) ;
#256 = DATE_TIME_ROLE ( 'classification_date' ) ;
#257 = EDGE_CURVE ( 'NONE', #197, #121, #242, .T. ) ;
#258 = COORDINATED_UNIVERSAL_TIME_OFFSET ( 1, 0, .AHEAD. ) ;
#259 = ORIENTED_EDGE ( 'NONE', *, *, #79, .F. ) ;
#260 = EDGE_LOOP ( 'NONE', ( #8, #243, #122, #189 ) ) ;
#261 = VERTEX_POINT ( 'NONE', #84 ) ;
#262 = CC_DESIGN_PERSON_AND_ORGANIZATION_ASSIGNMENT ( #42, #116, ( #291 ) ) ;
#263 = ORIENTED_EDGE ( 'NONE', *, *, #287, .F. ) ;
#264 = AXIS2_PLACEMENT_3D ( 'NONE', #55, #193, #223 ) ;
#265 = LOCAL_TIME ( 12, 26, 54.00000000000000000, #184 ) ;
#266 = DIRECTION ( 'NONE',  ( -0.000000000000000000, -0.000000000000000000, -1.000000000000000000 ) ) ;
#267 = DIRECTION ( 'NONE',  ( 0.000000000000000000, 0.000000000000000000, 1.000000000000000000 ) ) ;
#268 = PLANE ( 'NONE',  #244 ) ;
#269 = DIRECTION ( 'NONE',  ( 1.000000000000000000, 0.000000000000000000, 0.000000000000000000 ) ) ;
#270 = DIRECTION ( 'NONE',  ( 0.000000000000000000, 0.000000000000000000, 1.000000000000000000 ) ) ;
#271 = AXIS2_PLACEMENT_3D ( 'NONE', #37, #16, #227 ) ;
#272 = APPROVAL_PERSON_ORGANIZATION ( #45, #179, #21 ) ;
#273 = CYLINDRICAL_SURFACE ( 'NONE', #146, 1.750000000000000000 ) ;
#274 = CARTESIAN_POINT ( 'NONE',  ( 0.000000000000000000, 0.000000000000000000, 3.000000000000000000 ) ) ;
#275 = DIRECTION ( 'NONE',  ( 1.000000000000000000, 0.000000000000000000, 0.000000000000000000 ) ) ;
#276 = DIRECTION ( 'NONE',  ( 1.000000000000000000, 0.000000000000000000, 0.000000000000000000 ) ) ;
#277 = EDGE_CURVE ( 'NONE', #74, #69, #135, .T. ) ;
#278 = APPLICATION_CONTEXT ( 'configuration controlled 3d designs of mechanical parts and assemblies' ) ;
#279 = CARTESIAN_POINT ( 'NONE',  ( 0.000000000000000000, 0.000000000000000000, 3.000000000000000000 ) ) ;
#280 = CALENDAR_DATE ( 2022, 7, 7 ) ;
#281 = ADVANCED_FACE ( 'NONE', ( #202 ), #182, .T. ) ;
#282 = CIRCLE ( 'NONE', #264, 3.500000000000000444 ) ;
#283 = CC_DESIGN_APPROVAL ( #179, ( #291 ) ) ;
#284 = ORIENTED_EDGE ( 'NONE', *, *, #167, .F. ) ;
#285 = SECURITY_CLASSIFICATION ( '', '', #211 ) ;
#286 = EDGE_LOOP ( 'NONE', ( #130, #176, #295, #25 ) ) ;
#287 = EDGE_CURVE ( 'NONE', #48, #47, #147, .T. ) ;
#288 = EDGE_LOOP ( 'NONE', ( #284, #216, #97, #33 ) ) ;
#289 = LINE ( 'NONE', #28, #39 ) ;
#290 = VECTOR ( 'NONE', #221, 1000.000000000000000 ) ;
#291 = PRODUCT_DEFINITION_FORMATION_WITH_SPECIFIED_SOURCE ( 'LIBOVOLNÝ', '', #115, .NOT_KNOWN. ) ;
#292 = UNCERTAINTY_MEASURE_WITH_UNIT (LENGTH_MEASURE( 1.000000000000000082E-05 ), #80, 'distance_accuracy_value', 'NONE');
#293 = DIRECTION ( 'NONE',  ( 0.000000000000000000, 0.000000000000000000, 1.000000000000000000 ) ) ;
#294 = FACE_OUTER_BOUND ( 'NONE', #260, .T. ) ;
#295 = ORIENTED_EDGE ( 'NONE', *, *, #62, .T. ) ;
#296 = CARTESIAN_POINT ( 'NONE',  ( 0.000000000000000000, 0.000000000000000000, 3.199999999999980638 ) ) ;
#297 = CARTESIAN_POINT ( 'NONE',  ( -3.500000000000000444, 0.000000000000000000, 3.000000000000000000 ) ) ;
#298 = CARTESIAN_POINT ( 'NONE',  ( 1.750000000000000000, 2.143131898507868297E-16, 803.0000000000000000 ) ) ;
#299 = AXIS2_PLACEMENT_3D ( 'NONE', #104, #181, #276 ) ;
#300 = CARTESIAN_POINT ( 'NONE',  ( 0.000000000000000000, 0.000000000000000000, 3.000000000000000000 ) ) ;
#301 = DIRECTION ( 'NONE',  ( -1.000000000000000000, 0.000000000000000000, 0.000000000000000000 ) ) ;
#302 = DIRECTION ( 'NONE',  ( -0.000000000000000000, -0.000000000000000000, -1.000000000000000000 ) ) ;
#303 = CIRCLE ( 'NONE', #236, 1.950000000000000178 ) ;
#304 = AXIS2_PLACEMENT_3D ( 'NONE', #225, #30, #269 ) ;
#305 = CC_DESIGN_APPROVAL ( #253, ( #108 ) ) ;
#306 = APPROVAL_ROLE ( '' ) ;
#307 = ORIENTED_EDGE ( 'NONE', *, *, #167, .T. ) ;
ENDSEC;
END-ISO-10303-21;
