ISO-10303-21;
HEADER;
FILE_DESCRIPTION (( 'STEP AP203' ),
    '1' );
FILE_NAME ('3eaa.STEP',
    '2023-02-12T12:57:05',
    ( '' ),
    ( '' ),
    'SwSTEP 2.0',
    'SolidWorks 2019',
    '' );
FILE_SCHEMA (( 'CONFIG_CONTROL_DESIGN' ));
ENDSEC;

DATA;
#1 = FACE_OUTER_BOUND ( 'NONE', #169, .T. ) ;
#2 = VECTOR ( 'NONE', #243, 1000.000000000000000 ) ;
#3 = CARTESIAN_POINT ( 'NONE',  ( 0.000000000000000000, 0.000000000000000000, 1.500000000000000000 ) ) ;
#4 = FACE_OUTER_BOUND ( 'NONE', #133, .T. ) ;
#5 = CC_DESIGN_APPROVAL ( #20, ( #148 ) ) ;
#6 =( LENGTH_UNIT ( ) NAMED_UNIT ( * ) SI_UNIT ( .MILLI., .METRE. ) );
#7 =( NAMED_UNIT ( * ) PLANE_ANGLE_UNIT ( ) SI_UNIT ( $, .RADIAN. ) );
#8 = CARTESIAN_POINT ( 'NONE',  ( -1.500000000000000222, 0.000000000000000000, 1.500000000000000000 ) ) ;
#9 = EDGE_CURVE ( 'NONE', #12, #53, #78, .T. ) ;
#10 = PERSON_AND_ORGANIZATION ( #141, #63 ) ;
#11 = SHAPE_DEFINITION_REPRESENTATION ( #105, #128 ) ;
#12 = VERTEX_POINT ( 'NONE', #153 ) ;
#13 = APPROVAL_DATE_TIME ( #115, #118 ) ;
#14 = DIRECTION ( 'NONE',  ( 1.000000000000000000, 0.000000000000000000, 0.000000000000000000 ) ) ;
#15 = MANIFOLD_SOLID_BREP ( 'Pøidat vysunutím3', #103 ) ;
#16 = ORIENTED_EDGE ( 'NONE', *, *, #91, .F. ) ;
#17 = ORIENTED_EDGE ( 'NONE', *, *, #57, .F. ) ;
#18 = CYLINDRICAL_SURFACE ( 'NONE', #154, 0.6999999999999999556 ) ;
#19 = AXIS2_PLACEMENT_3D ( 'NONE', #73, #228, #186 ) ;
#20 = APPROVAL ( #152, 'NEURÈENÝ' ) ;
#21 = CARTESIAN_POINT ( 'NONE',  ( 0.000000000000000000, 0.000000000000000000, 160.0000000000000000 ) ) ;
#22 = CARTESIAN_POINT ( 'NONE',  ( 0.000000000000000000, 0.000000000000000000, 1.500000000000000000 ) ) ;
#23 = CARTESIAN_POINT ( 'NONE',  ( 0.000000000000000000, 0.000000000000000000, 160.0000000000000000 ) ) ;
#24 = AXIS2_PLACEMENT_3D ( 'NONE', #23, #26, #219 ) ;
#25 = APPROVAL_ROLE ( '' ) ;
#26 = DIRECTION ( 'NONE',  ( -0.000000000000000000, -0.000000000000000000, -1.000000000000000000 ) ) ;
#27 = PRODUCT ( '3eaa', '3eaa', '', ( #46 ) ) ;
#28 = PERSON_AND_ORGANIZATION_ROLE ( 'classification_officer' ) ;
#29 = DATE_TIME_ROLE ( 'classification_date' ) ;
#30 = ORIENTED_EDGE ( 'NONE', *, *, #9, .T. ) ;
#31 = LOCAL_TIME ( 13, 57, 5.000000000000000000, #50 ) ;
#32 = ORIENTED_EDGE ( 'NONE', *, *, #239, .T. ) ;
#33 = ORIENTED_EDGE ( 'NONE', *, *, #9, .F. ) ;
#34 = CC_DESIGN_DATE_AND_TIME_ASSIGNMENT ( #210, #29, ( #102 ) ) ;
#35 = APPROVAL_DATE_TIME ( #217, #20 ) ;
#36 = FACE_OUTER_BOUND ( 'NONE', #87, .T. ) ;
#37 = PERSON_AND_ORGANIZATION ( #141, #63 ) ;
#38 = EDGE_CURVE ( 'NONE', #216, #56, #248, .T. ) ;
#39 = DIRECTION ( 'NONE',  ( 0.000000000000000000, 0.000000000000000000, 1.000000000000000000 ) ) ;
#40 = LOCAL_TIME ( 13, 57, 5.000000000000000000, #143 ) ;
#41 = CARTESIAN_POINT ( 'NONE',  ( 1.500000000000000222, 1.836970198721030181E-16, 1.500000000000000000 ) ) ;
#42 = CARTESIAN_POINT ( 'NONE',  ( 0.000000000000000000, 0.000000000000000000, 0.000000000000000000 ) ) ;
#43 = CARTESIAN_POINT ( 'NONE',  ( 0.000000000000000000, 0.000000000000000000, 160.0000000000000000 ) ) ;
#44 = LINE ( 'NONE', #8, #2 ) ;
#45 = DIRECTION ( 'NONE',  ( 0.000000000000000000, 0.000000000000000000, 1.000000000000000000 ) ) ;
#46 = MECHANICAL_CONTEXT ( 'NONE', #123, 'mechanical' ) ;
#47 = EDGE_CURVE ( 'NONE', #135, #155, #177, .T. ) ;
#48 = DATE_AND_TIME ( #51, #31 ) ;
#49 = UNCERTAINTY_MEASURE_WITH_UNIT (LENGTH_MEASURE( 1.000000000000000082E-05 ), #6, 'distance_accuracy_value', 'NONE');
#50 = COORDINATED_UNIVERSAL_TIME_OFFSET ( 1, 0, .AHEAD. ) ;
#51 = CALENDAR_DATE ( 2023, 12, 2 ) ;
#52 = FACE_OUTER_BOUND ( 'NONE', #215, .T. ) ;
#53 = VERTEX_POINT ( 'NONE', #172 ) ;
#54 = VECTOR ( 'NONE', #162, 1000.000000000000000 ) ;
#55 = AXIS2_PLACEMENT_3D ( 'NONE', #43, #95, #60 ) ;
#56 = VERTEX_POINT ( 'NONE', #218 ) ;
#57 = EDGE_CURVE ( 'NONE', #56, #216, #97, .T. ) ;
#58 = ORIENTED_EDGE ( 'NONE', *, *, #200, .T. ) ;
#59 = DIRECTION ( 'NONE',  ( 1.000000000000000000, 0.000000000000000000, 0.000000000000000000 ) ) ;
#60 = DIRECTION ( 'NONE',  ( 1.000000000000000000, 0.000000000000000000, 0.000000000000000000 ) ) ;
#61 = DIRECTION ( 'NONE',  ( -0.000000000000000000, -0.000000000000000000, -1.000000000000000000 ) ) ;
#62 = DIRECTION ( 'NONE',  ( -0.000000000000000000, -0.000000000000000000, -1.000000000000000000 ) ) ;
#63 = ORGANIZATION ( 'NEURÈENÝ', 'NEURÈENÝ', '' ) ;
#64 = DIRECTION ( 'NONE',  ( 1.000000000000000000, 0.000000000000000000, -0.000000000000000000 ) ) ;
#65 = AXIS2_PLACEMENT_3D ( 'NONE', #193, #234, #199 ) ;
#66 = AXIS2_PLACEMENT_3D ( 'NONE', #88, #157, #59 ) ;
#67 = DIRECTION ( 'NONE',  ( 0.000000000000000000, 0.000000000000000000, 1.000000000000000000 ) ) ;
#68 = APPLICATION_PROTOCOL_DEFINITION ( 'international standard', 'config_control_design', 1994, #250 ) ;
#69 = APPROVAL_ROLE ( '' ) ;
#70 = CARTESIAN_POINT ( 'NONE',  ( -1.500000000000000222, 0.000000000000000000, 0.000000000000000000 ) ) ;
#71 = COORDINATED_UNIVERSAL_TIME_OFFSET ( 1, 0, .AHEAD. ) ;
#72 = APPROVAL ( #80, 'NEURÈENÝ' ) ;
#73 = CARTESIAN_POINT ( 'NONE',  ( 0.000000000000000000, 0.000000000000000000, 1.500000000000000000 ) ) ;
#74 = EDGE_LOOP ( 'NONE', ( #168, #33 ) ) ;
#75 = AXIS2_PLACEMENT_3D ( 'NONE', #100, #183, #64 ) ;
#76 = ORIENTED_EDGE ( 'NONE', *, *, #132, .F. ) ;
#77 = EDGE_CURVE ( 'NONE', #56, #12, #163, .T. ) ;
#78 = CIRCLE ( 'NONE', #19, 0.6999999999999999556 ) ;
#79 = DIRECTION ( 'NONE',  ( -0.000000000000000000, -0.000000000000000000, -1.000000000000000000 ) ) ;
#80 = APPROVAL_STATUS ( 'not_yet_approved' ) ;
#81 = PLANE ( 'NONE',  #75 ) ;
#82 = CARTESIAN_POINT ( 'NONE',  ( -1.500000000000000222, 0.000000000000000000, 1.500000000000000000 ) ) ;
#83 = AXIS2_PLACEMENT_3D ( 'NONE', #3, #79, #196 ) ;
#84 = AXIS2_PLACEMENT_3D ( 'NONE', #109, #45, #241 ) ;
#85 = APPROVAL_STATUS ( 'not_yet_approved' ) ;
#86 = AXIS2_PLACEMENT_3D ( 'NONE', #224, #39, #119 ) ;
#87 = EDGE_LOOP ( 'NONE', ( #17, #191, #30, #16 ) ) ;
#88 = CARTESIAN_POINT ( 'NONE',  ( 0.000000000000000000, 0.000000000000000000, 1.500000000000000000 ) ) ;
#89 = LOCAL_TIME ( 13, 57, 5.000000000000000000, #147 ) ;
#90 = DIRECTION ( 'NONE',  ( 0.000000000000000000, 0.000000000000000000, 1.000000000000000000 ) ) ;
#91 = EDGE_CURVE ( 'NONE', #216, #53, #146, .T. ) ;
#92 = ORIENTED_EDGE ( 'NONE', *, *, #134, .T. ) ;
#93 = PERSON_AND_ORGANIZATION ( #141, #63 ) ;
#94 = CC_DESIGN_PERSON_AND_ORGANIZATION_ASSIGNMENT ( #130, #151, ( #236 ) ) ;
#95 = DIRECTION ( 'NONE',  ( 0.000000000000000000, 0.000000000000000000, 1.000000000000000000 ) ) ;
#96 = CIRCLE ( 'NONE', #194, 1.500000000000000222 ) ;
#97 = CIRCLE ( 'NONE', #55, 0.6999999999999999556 ) ;
#98 = DIRECTION ( 'NONE',  ( 0.000000000000000000, 0.000000000000000000, 1.000000000000000000 ) ) ;
#99 = DIRECTION ( 'NONE',  ( 0.000000000000000000, 0.000000000000000000, 1.000000000000000000 ) ) ;
#100 = CARTESIAN_POINT ( 'NONE',  ( 0.000000000000000000, 0.000000000000000000, 1.500000000000000000 ) ) ;
#101 = CYLINDRICAL_SURFACE ( 'NONE', #65, 1.500000000000000222 ) ;
#102 = SECURITY_CLASSIFICATION ( '', '', #111 ) ;
#103 = CLOSED_SHELL ( 'NONE', ( #187, #117, #173, #106, #223, #185, #214 ) ) ;
#104 = PERSON_AND_ORGANIZATION ( #141, #63 ) ;
#105 = PRODUCT_DEFINITION_SHAPE ( 'NONE', 'NONE',  #148 ) ;
#106 = ADVANCED_FACE ( 'NONE', ( #142, #237 ), #81, .T. ) ;
#107 = CC_DESIGN_PERSON_AND_ORGANIZATION_ASSIGNMENT ( #104, #201, ( #27 ) ) ;
#108 = COORDINATED_UNIVERSAL_TIME_OFFSET ( 1, 0, .AHEAD. ) ;
#109 = CARTESIAN_POINT ( 'NONE',  ( 0.000000000000000000, 0.000000000000000000, 0.000000000000000000 ) ) ;
#110 = AXIS2_PLACEMENT_3D ( 'NONE', #22, #99, #120 ) ;
#111 = SECURITY_CLASSIFICATION_LEVEL ( 'unclassified' ) ;
#112 = ORIENTED_EDGE ( 'NONE', *, *, #239, .F. ) ;
#113 = CC_DESIGN_PERSON_AND_ORGANIZATION_ASSIGNMENT ( #93, #198, ( #148 ) ) ;
#114 = ORIENTED_EDGE ( 'NONE', *, *, #122, .T. ) ;
#115 = DATE_AND_TIME ( #244, #247 ) ;
#116 = ORIENTED_EDGE ( 'NONE', *, *, #200, .F. ) ;
#117 = ADVANCED_FACE ( 'NONE', ( #1 ), #145, .T. ) ;
#118 = APPROVAL ( #85, 'NEURÈENÝ' ) ;
#119 = DIRECTION ( 'NONE',  ( 1.000000000000000000, 0.000000000000000000, 0.000000000000000000 ) ) ;
#120 = DIRECTION ( 'NONE',  ( 1.000000000000000000, 0.000000000000000000, 0.000000000000000000 ) ) ;
#121 = AXIS2_PLACEMENT_3D ( 'NONE', #165, #67, #150 ) ;
#122 = EDGE_CURVE ( 'NONE', #53, #12, #170, .T. ) ;
#123 = APPLICATION_CONTEXT ( 'configuration controlled 3d designs of mechanical parts and assemblies' ) ;
#124 = DIRECTION ( 'NONE',  ( -0.000000000000000000, -0.000000000000000000, -1.000000000000000000 ) ) ;
#125 = FACE_OUTER_BOUND ( 'NONE', #213, .T. ) ;
#126 = CC_DESIGN_APPROVAL ( #118, ( #102 ) ) ;
#127 =( NAMED_UNIT ( * ) SI_UNIT ( $, .STERADIAN. ) SOLID_ANGLE_UNIT ( ) );
#128 = ADVANCED_BREP_SHAPE_REPRESENTATION ( '3eaa', ( #15, #121 ), #232 ) ;
#129 = PERSON_AND_ORGANIZATION_ROLE ( 'design_supplier' ) ;
#130 = PERSON_AND_ORGANIZATION ( #141, #63 ) ;
#131 = ORIENTED_EDGE ( 'NONE', *, *, #134, .F. ) ;
#132 = EDGE_CURVE ( 'NONE', #192, #246, #206, .T. ) ;
#133 = EDGE_LOOP ( 'NONE', ( #188, #136, #229, #114 ) ) ;
#134 = EDGE_CURVE ( 'NONE', #246, #192, #96, .T. ) ;
#135 = VERTEX_POINT ( 'NONE', #140 ) ;
#136 = ORIENTED_EDGE ( 'NONE', *, *, #38, .F. ) ;
#137 = VECTOR ( 'NONE', #124, 1000.000000000000000 ) ;
#138 = PRODUCT_RELATED_PRODUCT_CATEGORY ( 'detail', '', ( #27 ) ) ;
#139 = CARTESIAN_POINT ( 'NONE',  ( -0.6999999999999999556, 0.000000000000000000, 160.0000000000000000 ) ) ;
#140 = CARTESIAN_POINT ( 'NONE',  ( 1.500000000000000222, 1.836970198721030181E-16, 1.500000000000000000 ) ) ;
#141 = PERSON ( 'NEURÈENÝ', 'NEURÈENÝ', 'NEURÈENÝ', ('NEURÈENÝ'), ('NEURÈENÝ'), ('NEURÈENÝ') ) ;
#142 = FACE_BOUND ( 'NONE', #74, .T. ) ;
#143 = COORDINATED_UNIVERSAL_TIME_OFFSET ( 1, 0, .AHEAD. ) ;
#144 = CC_DESIGN_SECURITY_CLASSIFICATION ( #102, ( #236 ) ) ;
#145 = CYLINDRICAL_SURFACE ( 'NONE', #83, 1.500000000000000222 ) ;
#146 = LINE ( 'NONE', #139, #54 ) ;
#147 = COORDINATED_UNIVERSAL_TIME_OFFSET ( 1, 0, .AHEAD. ) ;
#148 = PRODUCT_DEFINITION ( 'NEZNÁMÝ', '', #236, #230 ) ;
#149 = APPROVAL_PERSON_ORGANIZATION ( #240, #20, #25 ) ;
#150 = DIRECTION ( 'NONE',  ( 1.000000000000000000, 0.000000000000000000, 0.000000000000000000 ) ) ;
#151 = PERSON_AND_ORGANIZATION_ROLE ( 'creator' ) ;
#152 = APPROVAL_STATUS ( 'not_yet_approved' ) ;
#153 = CARTESIAN_POINT ( 'NONE',  ( 0.6999999999999999556, 8.572527594031471957E-17, 1.500000000000000000 ) ) ;
#154 = AXIS2_PLACEMENT_3D ( 'NONE', #176, #61, #220 ) ;
#155 = VERTEX_POINT ( 'NONE', #82 ) ;
#156 = EDGE_CURVE ( 'NONE', #135, #192, #180, .T. ) ;
#157 = DIRECTION ( 'NONE',  ( 0.000000000000000000, 0.000000000000000000, 1.000000000000000000 ) ) ;
#158 = DIRECTION ( 'NONE',  ( 1.000000000000000000, 0.000000000000000000, 0.000000000000000000 ) ) ;
#159 = DATE_AND_TIME ( #252, #40 ) ;
#160 = CARTESIAN_POINT ( 'NONE',  ( 0.000000000000000000, 0.000000000000000000, 1.500000000000000000 ) ) ;
#161 = DIRECTION ( 'NONE',  ( 1.000000000000000000, 0.000000000000000000, -0.000000000000000000 ) ) ;
#162 = DIRECTION ( 'NONE',  ( -0.000000000000000000, -0.000000000000000000, -1.000000000000000000 ) ) ;
#163 = LINE ( 'NONE', #238, #166 ) ;
#164 = CC_DESIGN_DATE_AND_TIME_ASSIGNMENT ( #159, #233, ( #148 ) ) ;
#165 = CARTESIAN_POINT ( 'NONE',  ( 0.000000000000000000, 0.000000000000000000, 0.000000000000000000 ) ) ;
#166 = VECTOR ( 'NONE', #62, 1000.000000000000000 ) ;
#167 = APPROVAL_ROLE ( '' ) ;
#168 = ORIENTED_EDGE ( 'NONE', *, *, #122, .F. ) ;
#169 = EDGE_LOOP ( 'NONE', ( #211, #245, #231, #112 ) ) ;
#170 = CIRCLE ( 'NONE', #253, 0.6999999999999999556 ) ;
#171 = AXIS2_PLACEMENT_3D ( 'NONE', #189, #90, #14 ) ;
#172 = CARTESIAN_POINT ( 'NONE',  ( -0.6999999999999999556, 0.000000000000000000, 1.500000000000000000 ) ) ;
#173 = ADVANCED_FACE ( 'NONE', ( #125 ), #101, .T. ) ;
#174 = EDGE_LOOP ( 'NONE', ( #58, #227 ) ) ;
#175 = LOCAL_TIME ( 13, 57, 5.000000000000000000, #108 ) ;
#176 = CARTESIAN_POINT ( 'NONE',  ( 0.000000000000000000, 0.000000000000000000, 160.0000000000000000 ) ) ;
#177 = CIRCLE ( 'NONE', #66, 1.500000000000000222 ) ;
#178 = FACE_OUTER_BOUND ( 'NONE', #203, .T. ) ;
#179 = DIRECTION ( 'NONE',  ( 1.000000000000000000, 0.000000000000000000, 0.000000000000000000 ) ) ;
#180 = LINE ( 'NONE', #41, #137 ) ;
#181 = AXIS2_PLACEMENT_3D ( 'NONE', #21, #255, #161 ) ;
#182 = CC_DESIGN_PERSON_AND_ORGANIZATION_ASSIGNMENT ( #208, #129, ( #236 ) ) ;
#183 = DIRECTION ( 'NONE',  ( 0.000000000000000000, 0.000000000000000000, 1.000000000000000000 ) ) ;
#184 = CALENDAR_DATE ( 2023, 12, 2 ) ;
#185 = ADVANCED_FACE ( 'NONE', ( #4 ), #197, .T. ) ;
#186 = DIRECTION ( 'NONE',  ( 1.000000000000000000, 0.000000000000000000, 0.000000000000000000 ) ) ;
#187 = ADVANCED_FACE ( 'NONE', ( #36 ), #18, .T. ) ;
#188 = ORIENTED_EDGE ( 'NONE', *, *, #77, .F. ) ;
#189 = CARTESIAN_POINT ( 'NONE',  ( 0.000000000000000000, 0.000000000000000000, 160.0000000000000000 ) ) ;
#190 = APPROVAL_PERSON_ORGANIZATION ( #10, #118, #167 ) ;
#191 = ORIENTED_EDGE ( 'NONE', *, *, #77, .T. ) ;
#192 = VERTEX_POINT ( 'NONE', #254 ) ;
#193 = CARTESIAN_POINT ( 'NONE',  ( 0.000000000000000000, 0.000000000000000000, 1.500000000000000000 ) ) ;
#194 = AXIS2_PLACEMENT_3D ( 'NONE', #42, #98, #158 ) ;
#195 = PLANE ( 'NONE',  #181 ) ;
#196 = DIRECTION ( 'NONE',  ( -1.000000000000000000, 0.000000000000000000, 0.000000000000000000 ) ) ;
#197 = CYLINDRICAL_SURFACE ( 'NONE', #24, 0.6999999999999999556 ) ;
#198 = PERSON_AND_ORGANIZATION_ROLE ( 'creator' ) ;
#199 = DIRECTION ( 'NONE',  ( -1.000000000000000000, 0.000000000000000000, 0.000000000000000000 ) ) ;
#200 = EDGE_CURVE ( 'NONE', #155, #135, #212, .T. ) ;
#201 = PERSON_AND_ORGANIZATION_ROLE ( 'design_owner' ) ;
#202 = APPLICATION_PROTOCOL_DEFINITION ( 'international standard', 'config_control_design', 1994, #123 ) ;
#203 = EDGE_LOOP ( 'NONE', ( #205, #251 ) ) ;
#204 = PLANE ( 'NONE',  #84 ) ;
#205 = ORIENTED_EDGE ( 'NONE', *, *, #38, .T. ) ;
#206 = CIRCLE ( 'NONE', #86, 1.500000000000000222 ) ;
#207 = CALENDAR_DATE ( 2023, 12, 2 ) ;
#208 = PERSON_AND_ORGANIZATION ( #141, #63 ) ;
#209 = PERSON_AND_ORGANIZATION ( #141, #63 ) ;
#210 = DATE_AND_TIME ( #184, #175 ) ;
#211 = ORIENTED_EDGE ( 'NONE', *, *, #47, .F. ) ;
#212 = CIRCLE ( 'NONE', #110, 1.500000000000000222 ) ;
#213 = EDGE_LOOP ( 'NONE', ( #249, #116, #32, #92 ) ) ;
#214 = ADVANCED_FACE ( 'NONE', ( #178 ), #195, .T. ) ;
#215 = EDGE_LOOP ( 'NONE', ( #131, #76 ) ) ;
#216 = VERTEX_POINT ( 'NONE', #235 ) ;
#217 = DATE_AND_TIME ( #207, #89 ) ;
#218 = CARTESIAN_POINT ( 'NONE',  ( 0.6999999999999999556, 8.572527594031471957E-17, 160.0000000000000000 ) ) ;
#219 = DIRECTION ( 'NONE',  ( -1.000000000000000000, 0.000000000000000000, 0.000000000000000000 ) ) ;
#220 = DIRECTION ( 'NONE',  ( -1.000000000000000000, 0.000000000000000000, 0.000000000000000000 ) ) ;
#221 = CC_DESIGN_APPROVAL ( #72, ( #236 ) ) ;
#222 = DIRECTION ( 'NONE',  ( 0.000000000000000000, 0.000000000000000000, 1.000000000000000000 ) ) ;
#223 = ADVANCED_FACE ( 'NONE', ( #52 ), #204, .F. ) ;
#224 = CARTESIAN_POINT ( 'NONE',  ( 0.000000000000000000, 0.000000000000000000, 0.000000000000000000 ) ) ;
#225 = APPROVAL_PERSON_ORGANIZATION ( #37, #72, #69 ) ;
#226 = CC_DESIGN_PERSON_AND_ORGANIZATION_ASSIGNMENT ( #209, #28, ( #102 ) ) ;
#227 = ORIENTED_EDGE ( 'NONE', *, *, #47, .T. ) ;
#228 = DIRECTION ( 'NONE',  ( 0.000000000000000000, 0.000000000000000000, 1.000000000000000000 ) ) ;
#229 = ORIENTED_EDGE ( 'NONE', *, *, #91, .T. ) ;
#230 = DESIGN_CONTEXT ( 'detailed design', #250, 'design' ) ;
#231 = ORIENTED_EDGE ( 'NONE', *, *, #132, .T. ) ;
#232 =( GEOMETRIC_REPRESENTATION_CONTEXT ( 3 ) GLOBAL_UNCERTAINTY_ASSIGNED_CONTEXT ( ( #49 ) ) GLOBAL_UNIT_ASSIGNED_CONTEXT ( ( #6, #7, #127 ) ) REPRESENTATION_CONTEXT ( 'NONE', 'WORKASPACE' ) );
#233 = DATE_TIME_ROLE ( 'creation_date' ) ;
#234 = DIRECTION ( 'NONE',  ( -0.000000000000000000, -0.000000000000000000, -1.000000000000000000 ) ) ;
#235 = CARTESIAN_POINT ( 'NONE',  ( -0.6999999999999999556, 0.000000000000000000, 160.0000000000000000 ) ) ;
#236 = PRODUCT_DEFINITION_FORMATION_WITH_SPECIFIED_SOURCE ( 'LIBOVOLNÝ', '', #27, .NOT_KNOWN. ) ;
#237 = FACE_OUTER_BOUND ( 'NONE', #174, .T. ) ;
#238 = CARTESIAN_POINT ( 'NONE',  ( 0.6999999999999999556, 8.572527594031471957E-17, 160.0000000000000000 ) ) ;
#239 = EDGE_CURVE ( 'NONE', #155, #246, #44, .T. ) ;
#240 = PERSON_AND_ORGANIZATION ( #141, #63 ) ;
#241 = DIRECTION ( 'NONE',  ( 1.000000000000000000, 0.000000000000000000, -0.000000000000000000 ) ) ;
#242 = APPROVAL_DATE_TIME ( #48, #72 ) ;
#243 = DIRECTION ( 'NONE',  ( -0.000000000000000000, -0.000000000000000000, -1.000000000000000000 ) ) ;
#244 = CALENDAR_DATE ( 2023, 12, 2 ) ;
#245 = ORIENTED_EDGE ( 'NONE', *, *, #156, .T. ) ;
#246 = VERTEX_POINT ( 'NONE', #70 ) ;
#247 = LOCAL_TIME ( 13, 57, 5.000000000000000000, #71 ) ;
#248 = CIRCLE ( 'NONE', #171, 0.6999999999999999556 ) ;
#249 = ORIENTED_EDGE ( 'NONE', *, *, #156, .F. ) ;
#250 = APPLICATION_CONTEXT ( 'configuration controlled 3d designs of mechanical parts and assemblies' ) ;
#251 = ORIENTED_EDGE ( 'NONE', *, *, #57, .T. ) ;
#252 = CALENDAR_DATE ( 2023, 12, 2 ) ;
#253 = AXIS2_PLACEMENT_3D ( 'NONE', #160, #222, #179 ) ;
#254 = CARTESIAN_POINT ( 'NONE',  ( 1.500000000000000222, 1.836970198721030181E-16, 0.000000000000000000 ) ) ;
#255 = DIRECTION ( 'NONE',  ( 0.000000000000000000, 0.000000000000000000, 1.000000000000000000 ) ) ;
ENDSEC;
END-ISO-10303-21;
