ISO-10303-21;
HEADER;
FILE_DESCRIPTION (( 'STEP AP203' ),
    '1' );
FILE_NAME ('44da.STEP',
    '2023-02-12T11:47:40',
    ( '' ),
    ( '' ),
    'SwSTEP 2.0',
    'SolidWorks 2019',
    '' );
FILE_SCHEMA (( 'CONFIG_CONTROL_DESIGN' ));
ENDSEC;

DATA;
#1 = FACE_OUTER_BOUND ( 'NONE', #226, .T. ) ;
#2 =( LENGTH_UNIT ( ) NAMED_UNIT ( * ) SI_UNIT ( .MILLI., .METRE. ) );
#3 = CALENDAR_DATE ( 2023, 12, 2 ) ;
#4 = PERSON_AND_ORGANIZATION ( #58, #178 ) ;
#5 = CALENDAR_DATE ( 2023, 12, 2 ) ;
#6 = APPROVAL_STATUS ( 'not_yet_approved' ) ;
#7 = EDGE_LOOP ( 'NONE', ( #144, #230, #29, #166 ) ) ;
#8 = ORIENTED_EDGE ( 'NONE', *, *, #254, .F. ) ;
#9 = AXIS2_PLACEMENT_3D ( 'NONE', #50, #17, #87 ) ;
#10 = VERTEX_POINT ( 'NONE', #244 ) ;
#11 = ORIENTED_EDGE ( 'NONE', *, *, #102, .T. ) ;
#12 = ORIENTED_EDGE ( 'NONE', *, *, #75, .T. ) ;
#13 = EDGE_CURVE ( 'NONE', #130, #189, #116, .T. ) ;
#14 = FACE_OUTER_BOUND ( 'NONE', #85, .T. ) ;
#15 = APPLICATION_CONTEXT ( 'configuration controlled 3d designs of mechanical parts and assemblies' ) ;
#16 = LINE ( 'NONE', #250, #187 ) ;
#17 = DIRECTION ( 'NONE',  ( 0.000000000000000000, 0.000000000000000000, 1.000000000000000000 ) ) ;
#18 = DIRECTION ( 'NONE',  ( 1.000000000000000000, 0.000000000000000000, -0.000000000000000000 ) ) ;
#19 = AXIS2_PLACEMENT_3D ( 'NONE', #206, #28, #146 ) ;
#20 = DIRECTION ( 'NONE',  ( -1.000000000000000000, 0.000000000000000000, 0.000000000000000000 ) ) ;
#21 = PERSON_AND_ORGANIZATION ( #58, #178 ) ;
#22 = CALENDAR_DATE ( 2023, 12, 2 ) ;
#23 = PERSON_AND_ORGANIZATION ( #58, #178 ) ;
#24 = CC_DESIGN_PERSON_AND_ORGANIZATION_ASSIGNMENT ( #23, #238, ( #83 ) ) ;
#25 = CALENDAR_DATE ( 2023, 12, 2 ) ;
#26 = CARTESIAN_POINT ( 'NONE',  ( 0.000000000000000000, 0.000000000000000000, 5.000000000000000000 ) ) ;
#27 = VERTEX_POINT ( 'NONE', #86 ) ;
#28 = DIRECTION ( 'NONE',  ( 0.000000000000000000, 0.000000000000000000, 1.000000000000000000 ) ) ;
#29 = ORIENTED_EDGE ( 'NONE', *, *, #160, .T. ) ;
#30 = PRODUCT_DEFINITION ( 'NEZNÁMÝ', '', #117, #96 ) ;
#31 = DIRECTION ( 'NONE',  ( 1.000000000000000000, 0.000000000000000000, 0.000000000000000000 ) ) ;
#32 = PLANE ( 'NONE',  #45 ) ;
#33 = DIRECTION ( 'NONE',  ( -1.000000000000000000, 0.000000000000000000, 0.000000000000000000 ) ) ;
#34 = FACE_OUTER_BOUND ( 'NONE', #145, .T. ) ;
#35 = AXIS2_PLACEMENT_3D ( 'NONE', #141, #138, #113 ) ;
#36 = CARTESIAN_POINT ( 'NONE',  ( -7.000000000000000000, 0.000000000000000000, 0.000000000000000000 ) ) ;
#37 = UNCERTAINTY_MEASURE_WITH_UNIT (LENGTH_MEASURE( 1.000000000000000082E-05 ), #2, 'distance_accuracy_value', 'NONE');
#38 = PERSON_AND_ORGANIZATION_ROLE ( 'creator' ) ;
#39 = CLOSED_SHELL ( 'NONE', ( #142, #107, #79, #114, #251, #125, #111 ) ) ;
#40 = AXIS2_PLACEMENT_3D ( 'NONE', #214, #216, #20 ) ;
#41 = APPLICATION_PROTOCOL_DEFINITION ( 'international standard', 'config_control_design', 1994, #172 ) ;
#42 = EDGE_CURVE ( 'NONE', #130, #227, #69, .T. ) ;
#43 =( NAMED_UNIT ( * ) PLANE_ANGLE_UNIT ( ) SI_UNIT ( $, .RADIAN. ) );
#44 = DATE_AND_TIME ( #25, #128 ) ;
#45 = AXIS2_PLACEMENT_3D ( 'NONE', #109, #193, #153 ) ;
#46 = CIRCLE ( 'NONE', #9, 4.000000000000000000 ) ;
#47 = ORIENTED_EDGE ( 'NONE', *, *, #63, .T. ) ;
#48 = ORIENTED_EDGE ( 'NONE', *, *, #120, .F. ) ;
#49 = VERTEX_POINT ( 'NONE', #64 ) ;
#50 = CARTESIAN_POINT ( 'NONE',  ( 0.000000000000000000, 0.000000000000000000, 5.000000000000000000 ) ) ;
#51 = CARTESIAN_POINT ( 'NONE',  ( 4.000000000000000000, 4.898587196589412829E-16, 800.0000000000000000 ) ) ;
#52 = CC_DESIGN_SECURITY_CLASSIFICATION ( #122, ( #117 ) ) ;
#53 = FACE_OUTER_BOUND ( 'NONE', #188, .T. ) ;
#54 = CARTESIAN_POINT ( 'NONE',  ( 0.000000000000000000, 0.000000000000000000, 800.0000000000000000 ) ) ;
#55 = CYLINDRICAL_SURFACE ( 'NONE', #240, 4.000000000000000000 ) ;
#56 = CIRCLE ( 'NONE', #152, 7.000000000000000000 ) ;
#57 = VECTOR ( 'NONE', #150, 1000.000000000000000 ) ;
#58 = PERSON ( 'NEURÈENÝ', 'NEURÈENÝ', 'NEURÈENÝ', ('NEURÈENÝ'), ('NEURÈENÝ'), ('NEURÈENÝ') ) ;
#59 = APPROVAL_DATE_TIME ( #180, #223 ) ;
#60 = COORDINATED_UNIVERSAL_TIME_OFFSET ( 1, 0, .AHEAD. ) ;
#61 = MANIFOLD_SOLID_BREP ( 'Pøidat vysunutím3', #39 ) ;
#62 = DATE_TIME_ROLE ( 'creation_date' ) ;
#63 = EDGE_CURVE ( 'NONE', #247, #49, #211, .T. ) ;
#64 = CARTESIAN_POINT ( 'NONE',  ( 4.000000000000000000, 4.898587196589412829E-16, 800.0000000000000000 ) ) ;
#65 = EDGE_CURVE ( 'NONE', #124, #227, #207, .T. ) ;
#66 = CARTESIAN_POINT ( 'NONE',  ( -7.000000000000000000, 0.000000000000000000, 5.000000000000000000 ) ) ;
#67 = AXIS2_PLACEMENT_3D ( 'NONE', #194, #154, #108 ) ;
#68 = APPROVAL_PERSON_ORGANIZATION ( #201, #99, #143 ) ;
#69 = LINE ( 'NONE', #66, #123 ) ;
#70 = DIRECTION ( 'NONE',  ( -0.000000000000000000, -0.000000000000000000, -1.000000000000000000 ) ) ;
#71 = CARTESIAN_POINT ( 'NONE',  ( 0.000000000000000000, 0.000000000000000000, 5.000000000000000000 ) ) ;
#72 = DIRECTION ( 'NONE',  ( 0.000000000000000000, 0.000000000000000000, 1.000000000000000000 ) ) ;
#73 = CC_DESIGN_APPROVAL ( #99, ( #122 ) ) ;
#74 = FACE_OUTER_BOUND ( 'NONE', #7, .T. ) ;
#75 = EDGE_CURVE ( 'NONE', #227, #124, #95, .T. ) ;
#76 = CARTESIAN_POINT ( 'NONE',  ( 0.000000000000000000, 0.000000000000000000, 5.000000000000000000 ) ) ;
#77 =( GEOMETRIC_REPRESENTATION_CONTEXT ( 3 ) GLOBAL_UNCERTAINTY_ASSIGNED_CONTEXT ( ( #37 ) ) GLOBAL_UNIT_ASSIGNED_CONTEXT ( ( #2, #43, #157 ) ) REPRESENTATION_CONTEXT ( 'NONE', 'WORKASPACE' ) );
#78 = APPROVAL_DATE_TIME ( #200, #149 ) ;
#79 = ADVANCED_FACE ( 'NONE', ( #14 ), #173, .T. ) ;
#80 = PERSON_AND_ORGANIZATION_ROLE ( 'classification_officer' ) ;
#81 = DATE_AND_TIME ( #5, #112 ) ;
#82 = APPROVAL_STATUS ( 'not_yet_approved' ) ;
#83 = PRODUCT ( '44da', '44da', '', ( #162 ) ) ;
#84 = ORIENTED_EDGE ( 'NONE', *, *, #42, .F. ) ;
#85 = EDGE_LOOP ( 'NONE', ( #106, #129, #168, #12 ) ) ;
#86 = CARTESIAN_POINT ( 'NONE',  ( -4.000000000000000000, 0.000000000000000000, 5.000000000000000000 ) ) ;
#87 = DIRECTION ( 'NONE',  ( 1.000000000000000000, 0.000000000000000000, 0.000000000000000000 ) ) ;
#88 = LINE ( 'NONE', #136, #147 ) ;
#89 = PLANE ( 'NONE',  #103 ) ;
#90 = DIRECTION ( 'NONE',  ( 0.000000000000000000, 0.000000000000000000, 1.000000000000000000 ) ) ;
#91 = ADVANCED_BREP_SHAPE_REPRESENTATION ( '44da', ( #61, #35 ), #77 ) ;
#92 = EDGE_CURVE ( 'NONE', #27, #10, #158, .T. ) ;
#93 = CARTESIAN_POINT ( 'NONE',  ( -7.000000000000000000, 0.000000000000000000, 5.000000000000000000 ) ) ;
#94 = APPLICATION_PROTOCOL_DEFINITION ( 'international standard', 'config_control_design', 1994, #15 ) ;
#95 = CIRCLE ( 'NONE', #219, 7.000000000000000000 ) ;
#96 = DESIGN_CONTEXT ( 'detailed design', #172, 'design' ) ;
#97 = PERSON_AND_ORGANIZATION_ROLE ( 'creator' ) ;
#98 = APPROVAL_ROLE ( '' ) ;
#99 = APPROVAL ( #6, 'NEURÈENÝ' ) ;
#100 = DIRECTION ( 'NONE',  ( 0.000000000000000000, 0.000000000000000000, 1.000000000000000000 ) ) ;
#101 = ORIENTED_EDGE ( 'NONE', *, *, #243, .T. ) ;
#102 = EDGE_CURVE ( 'NONE', #10, #27, #46, .T. ) ;
#103 = AXIS2_PLACEMENT_3D ( 'NONE', #171, #174, #213 ) ;
#104 = ORIENTED_EDGE ( 'NONE', *, *, #65, .T. ) ;
#105 = ORIENTED_EDGE ( 'NONE', *, *, #13, .T. ) ;
#106 = ORIENTED_EDGE ( 'NONE', *, *, #243, .F. ) ;
#107 = ADVANCED_FACE ( 'NONE', ( #34 ), #110, .T. ) ;
#108 = DIRECTION ( 'NONE',  ( 1.000000000000000000, 0.000000000000000000, 0.000000000000000000 ) ) ;
#109 = CARTESIAN_POINT ( 'NONE',  ( 0.000000000000000000, 0.000000000000000000, 0.000000000000000000 ) ) ;
#110 = CYLINDRICAL_SURFACE ( 'NONE', #191, 7.000000000000000000 ) ;
#111 = ADVANCED_FACE ( 'NONE', ( #53 ), #233, .T. ) ;
#112 = LOCAL_TIME ( 12, 47, 40.00000000000000000, #239 ) ;
#113 = DIRECTION ( 'NONE',  ( 1.000000000000000000, 0.000000000000000000, 0.000000000000000000 ) ) ;
#114 = ADVANCED_FACE ( 'NONE', ( #253, #170 ), #89, .T. ) ;
#115 = SECURITY_CLASSIFICATION_LEVEL ( 'unclassified' ) ;
#116 = CIRCLE ( 'NONE', #169, 7.000000000000000000 ) ;
#117 = PRODUCT_DEFINITION_FORMATION_WITH_SPECIFIED_SOURCE ( 'LIBOVOLNÝ', '', #83, .NOT_KNOWN. ) ;
#118 = COORDINATED_UNIVERSAL_TIME_OFFSET ( 1, 0, .AHEAD. ) ;
#119 = PERSON_AND_ORGANIZATION ( #58, #178 ) ;
#120 = EDGE_CURVE ( 'NONE', #189, #130, #56, .T. ) ;
#121 = COORDINATED_UNIVERSAL_TIME_OFFSET ( 1, 0, .AHEAD. ) ;
#122 = SECURITY_CLASSIFICATION ( '', '', #115 ) ;
#123 = VECTOR ( 'NONE', #148, 1000.000000000000000 ) ;
#124 = VERTEX_POINT ( 'NONE', #231 ) ;
#125 = ADVANCED_FACE ( 'NONE', ( #74 ), #55, .T. ) ;
#126 = ORIENTED_EDGE ( 'NONE', *, *, #65, .F. ) ;
#127 = ORIENTED_EDGE ( 'NONE', *, *, #215, .T. ) ;
#128 = LOCAL_TIME ( 12, 47, 40.00000000000000000, #121 ) ;
#129 = ORIENTED_EDGE ( 'NONE', *, *, #13, .F. ) ;
#130 = VERTEX_POINT ( 'NONE', #93 ) ;
#131 = DIRECTION ( 'NONE',  ( -1.000000000000000000, 0.000000000000000000, 0.000000000000000000 ) ) ;
#132 = CC_DESIGN_APPROVAL ( #149, ( #117 ) ) ;
#133 = CARTESIAN_POINT ( 'NONE',  ( 0.000000000000000000, 0.000000000000000000, 5.000000000000000000 ) ) ;
#134 = CARTESIAN_POINT ( 'NONE',  ( 0.000000000000000000, 0.000000000000000000, 800.0000000000000000 ) ) ;
#135 = DIRECTION ( 'NONE',  ( -0.000000000000000000, -0.000000000000000000, -1.000000000000000000 ) ) ;
#136 = CARTESIAN_POINT ( 'NONE',  ( 7.000000000000000000, 8.572527594031473190E-16, 5.000000000000000000 ) ) ;
#137 = APPROVAL_PERSON_ORGANIZATION ( #21, #149, #221 ) ;
#138 = DIRECTION ( 'NONE',  ( 0.000000000000000000, 0.000000000000000000, 1.000000000000000000 ) ) ;
#139 = DIRECTION ( 'NONE',  ( 1.000000000000000000, 0.000000000000000000, 0.000000000000000000 ) ) ;
#140 = AXIS2_PLACEMENT_3D ( 'NONE', #209, #245, #31 ) ;
#141 = CARTESIAN_POINT ( 'NONE',  ( 0.000000000000000000, 0.000000000000000000, 0.000000000000000000 ) ) ;
#142 = ADVANCED_FACE ( 'NONE', ( #196 ), #210, .T. ) ;
#143 = APPROVAL_ROLE ( '' ) ;
#144 = ORIENTED_EDGE ( 'NONE', *, *, #215, .F. ) ;
#145 = EDGE_LOOP ( 'NONE', ( #48, #101, #104, #84 ) ) ;
#146 = DIRECTION ( 'NONE',  ( 1.000000000000000000, 0.000000000000000000, 0.000000000000000000 ) ) ;
#147 = VECTOR ( 'NONE', #70, 1000.000000000000000 ) ;
#148 = DIRECTION ( 'NONE',  ( -0.000000000000000000, -0.000000000000000000, -1.000000000000000000 ) ) ;
#149 = APPROVAL ( #179, 'NEURÈENÝ' ) ;
#150 = DIRECTION ( 'NONE',  ( -0.000000000000000000, -0.000000000000000000, -1.000000000000000000 ) ) ;
#151 = DIRECTION ( 'NONE',  ( -0.000000000000000000, -0.000000000000000000, -1.000000000000000000 ) ) ;
#152 = AXIS2_PLACEMENT_3D ( 'NONE', #133, #72, #255 ) ;
#153 = DIRECTION ( 'NONE',  ( 1.000000000000000000, 0.000000000000000000, -0.000000000000000000 ) ) ;
#154 = DIRECTION ( 'NONE',  ( 0.000000000000000000, 0.000000000000000000, 1.000000000000000000 ) ) ;
#155 = DIRECTION ( 'NONE',  ( 0.000000000000000000, 0.000000000000000000, 1.000000000000000000 ) ) ;
#156 = AXIS2_PLACEMENT_3D ( 'NONE', #241, #177, #139 ) ;
#157 =( NAMED_UNIT ( * ) SI_UNIT ( $, .STERADIAN. ) SOLID_ANGLE_UNIT ( ) );
#158 = CIRCLE ( 'NONE', #67, 4.000000000000000000 ) ;
#159 = CC_DESIGN_DATE_AND_TIME_ASSIGNMENT ( #81, #222, ( #122 ) ) ;
#160 = EDGE_CURVE ( 'NONE', #247, #27, #16, .T. ) ;
#161 = PERSON_AND_ORGANIZATION ( #58, #178 ) ;
#162 = MECHANICAL_CONTEXT ( 'NONE', #15, 'mechanical' ) ;
#163 = ORIENTED_EDGE ( 'NONE', *, *, #160, .F. ) ;
#164 = PRODUCT_DEFINITION_SHAPE ( 'NONE', 'NONE',  #30 ) ;
#165 = EDGE_LOOP ( 'NONE', ( #248, #228 ) ) ;
#166 = ORIENTED_EDGE ( 'NONE', *, *, #92, .T. ) ;
#167 = CC_DESIGN_DATE_AND_TIME_ASSIGNMENT ( #218, #62, ( #30 ) ) ;
#168 = ORIENTED_EDGE ( 'NONE', *, *, #42, .T. ) ;
#169 = AXIS2_PLACEMENT_3D ( 'NONE', #26, #100, #208 ) ;
#170 = FACE_OUTER_BOUND ( 'NONE', #229, .T. ) ;
#171 = CARTESIAN_POINT ( 'NONE',  ( 0.000000000000000000, 0.000000000000000000, 5.000000000000000000 ) ) ;
#172 = APPLICATION_CONTEXT ( 'configuration controlled 3d designs of mechanical parts and assemblies' ) ;
#173 = CYLINDRICAL_SURFACE ( 'NONE', #183, 7.000000000000000000 ) ;
#174 = DIRECTION ( 'NONE',  ( 0.000000000000000000, 0.000000000000000000, 1.000000000000000000 ) ) ;
#175 = CARTESIAN_POINT ( 'NONE',  ( 7.000000000000000000, 8.572527594031473190E-16, 5.000000000000000000 ) ) ;
#176 = PRODUCT_RELATED_PRODUCT_CATEGORY ( 'detail', '', ( #83 ) ) ;
#177 = DIRECTION ( 'NONE',  ( 0.000000000000000000, 0.000000000000000000, 1.000000000000000000 ) ) ;
#178 = ORGANIZATION ( 'NEURÈENÝ', 'NEURÈENÝ', '' ) ;
#179 = APPROVAL_STATUS ( 'not_yet_approved' ) ;
#180 = DATE_AND_TIME ( #3, #237 ) ;
#181 = CC_DESIGN_PERSON_AND_ORGANIZATION_ASSIGNMENT ( #242, #97, ( #30 ) ) ;
#182 = PERSON_AND_ORGANIZATION ( #58, #178 ) ;
#183 = AXIS2_PLACEMENT_3D ( 'NONE', #76, #135, #33 ) ;
#184 = APPROVAL_PERSON_ORGANIZATION ( #119, #223, #98 ) ;
#185 = SHAPE_DEFINITION_REPRESENTATION ( #164, #91 ) ;
#186 = ORIENTED_EDGE ( 'NONE', *, *, #254, .T. ) ;
#187 = VECTOR ( 'NONE', #236, 1000.000000000000000 ) ;
#188 = EDGE_LOOP ( 'NONE', ( #47, #186 ) ) ;
#189 = VERTEX_POINT ( 'NONE', #175 ) ;
#190 = LINE ( 'NONE', #51, #57 ) ;
#191 = AXIS2_PLACEMENT_3D ( 'NONE', #71, #151, #235 ) ;
#192 = DIRECTION ( 'NONE',  ( -0.000000000000000000, -0.000000000000000000, -1.000000000000000000 ) ) ;
#193 = DIRECTION ( 'NONE',  ( 0.000000000000000000, 0.000000000000000000, 1.000000000000000000 ) ) ;
#194 = CARTESIAN_POINT ( 'NONE',  ( 0.000000000000000000, 0.000000000000000000, 5.000000000000000000 ) ) ;
#195 = LOCAL_TIME ( 12, 47, 40.00000000000000000, #60 ) ;
#196 = FACE_OUTER_BOUND ( 'NONE', #204, .T. ) ;
#197 = PERSON_AND_ORGANIZATION_ROLE ( 'design_supplier' ) ;
#198 = COORDINATED_UNIVERSAL_TIME_OFFSET ( 1, 0, .AHEAD. ) ;
#199 = CC_DESIGN_PERSON_AND_ORGANIZATION_ASSIGNMENT ( #4, #80, ( #122 ) ) ;
#200 = DATE_AND_TIME ( #217, #195 ) ;
#201 = PERSON_AND_ORGANIZATION ( #58, #178 ) ;
#202 = APPROVAL_DATE_TIME ( #44, #99 ) ;
#203 = CIRCLE ( 'NONE', #156, 4.000000000000000000 ) ;
#204 = EDGE_LOOP ( 'NONE', ( #8, #127, #11, #163 ) ) ;
#205 = ORIENTED_EDGE ( 'NONE', *, *, #75, .F. ) ;
#206 = CARTESIAN_POINT ( 'NONE',  ( 0.000000000000000000, 0.000000000000000000, 0.000000000000000000 ) ) ;
#207 = CIRCLE ( 'NONE', #19, 7.000000000000000000 ) ;
#208 = DIRECTION ( 'NONE',  ( 1.000000000000000000, 0.000000000000000000, 0.000000000000000000 ) ) ;
#209 = CARTESIAN_POINT ( 'NONE',  ( 0.000000000000000000, 0.000000000000000000, 800.0000000000000000 ) ) ;
#210 = CYLINDRICAL_SURFACE ( 'NONE', #40, 4.000000000000000000 ) ;
#211 = CIRCLE ( 'NONE', #140, 4.000000000000000000 ) ;
#212 = CARTESIAN_POINT ( 'NONE',  ( -4.000000000000000000, 0.000000000000000000, 800.0000000000000000 ) ) ;
#213 = DIRECTION ( 'NONE',  ( 1.000000000000000000, 0.000000000000000000, -0.000000000000000000 ) ) ;
#214 = CARTESIAN_POINT ( 'NONE',  ( 0.000000000000000000, 0.000000000000000000, 800.0000000000000000 ) ) ;
#215 = EDGE_CURVE ( 'NONE', #49, #10, #190, .T. ) ;
#216 = DIRECTION ( 'NONE',  ( -0.000000000000000000, -0.000000000000000000, -1.000000000000000000 ) ) ;
#217 = CALENDAR_DATE ( 2023, 12, 2 ) ;
#218 = DATE_AND_TIME ( #22, #220 ) ;
#219 = AXIS2_PLACEMENT_3D ( 'NONE', #234, #90, #252 ) ;
#220 = LOCAL_TIME ( 12, 47, 40.00000000000000000, #118 ) ;
#221 = APPROVAL_ROLE ( '' ) ;
#222 = DATE_TIME_ROLE ( 'classification_date' ) ;
#223 = APPROVAL ( #82, 'NEURÈENÝ' ) ;
#224 = CC_DESIGN_APPROVAL ( #223, ( #30 ) ) ;
#225 = AXIS2_PLACEMENT_3D ( 'NONE', #134, #155, #18 ) ;
#226 = EDGE_LOOP ( 'NONE', ( #205, #126 ) ) ;
#227 = VERTEX_POINT ( 'NONE', #36 ) ;
#228 = ORIENTED_EDGE ( 'NONE', *, *, #102, .F. ) ;
#229 = EDGE_LOOP ( 'NONE', ( #105, #249 ) ) ;
#230 = ORIENTED_EDGE ( 'NONE', *, *, #63, .F. ) ;
#231 = CARTESIAN_POINT ( 'NONE',  ( 7.000000000000000000, 8.572527594031473190E-16, 0.000000000000000000 ) ) ;
#232 = CC_DESIGN_PERSON_AND_ORGANIZATION_ASSIGNMENT ( #161, #197, ( #117 ) ) ;
#233 = PLANE ( 'NONE',  #225 ) ;
#234 = CARTESIAN_POINT ( 'NONE',  ( 0.000000000000000000, 0.000000000000000000, 0.000000000000000000 ) ) ;
#235 = DIRECTION ( 'NONE',  ( -1.000000000000000000, 0.000000000000000000, 0.000000000000000000 ) ) ;
#236 = DIRECTION ( 'NONE',  ( -0.000000000000000000, -0.000000000000000000, -1.000000000000000000 ) ) ;
#237 = LOCAL_TIME ( 12, 47, 40.00000000000000000, #198 ) ;
#238 = PERSON_AND_ORGANIZATION_ROLE ( 'design_owner' ) ;
#239 = COORDINATED_UNIVERSAL_TIME_OFFSET ( 1, 0, .AHEAD. ) ;
#240 = AXIS2_PLACEMENT_3D ( 'NONE', #54, #192, #131 ) ;
#241 = CARTESIAN_POINT ( 'NONE',  ( 0.000000000000000000, 0.000000000000000000, 800.0000000000000000 ) ) ;
#242 = PERSON_AND_ORGANIZATION ( #58, #178 ) ;
#243 = EDGE_CURVE ( 'NONE', #189, #124, #88, .T. ) ;
#244 = CARTESIAN_POINT ( 'NONE',  ( 4.000000000000000000, 4.898587196589412829E-16, 5.000000000000000000 ) ) ;
#245 = DIRECTION ( 'NONE',  ( 0.000000000000000000, 0.000000000000000000, 1.000000000000000000 ) ) ;
#246 = CC_DESIGN_PERSON_AND_ORGANIZATION_ASSIGNMENT ( #182, #38, ( #117 ) ) ;
#247 = VERTEX_POINT ( 'NONE', #212 ) ;
#248 = ORIENTED_EDGE ( 'NONE', *, *, #92, .F. ) ;
#249 = ORIENTED_EDGE ( 'NONE', *, *, #120, .T. ) ;
#250 = CARTESIAN_POINT ( 'NONE',  ( -4.000000000000000000, 0.000000000000000000, 800.0000000000000000 ) ) ;
#251 = ADVANCED_FACE ( 'NONE', ( #1 ), #32, .F. ) ;
#252 = DIRECTION ( 'NONE',  ( 1.000000000000000000, 0.000000000000000000, 0.000000000000000000 ) ) ;
#253 = FACE_BOUND ( 'NONE', #165, .T. ) ;
#254 = EDGE_CURVE ( 'NONE', #49, #247, #203, .T. ) ;
#255 = DIRECTION ( 'NONE',  ( 1.000000000000000000, 0.000000000000000000, 0.000000000000000000 ) ) ;
ENDSEC;
END-ISO-10303-21;
