ISO-10303-21;
HEADER;
FILE_DESCRIPTION (( 'STEP AP203' ),
    '1' );
FILE_NAME ('1bc8.STEP',
    '2023-02-12T12:18:47',
    ( '' ),
    ( '' ),
    'SwSTEP 2.0',
    'SolidWorks 2019',
    '' );
FILE_SCHEMA (( 'CONFIG_CONTROL_DESIGN' ));
ENDSEC;

DATA;
#1 = CARTESIAN_POINT ( 'NONE',  ( 0.000000000000000000, 0.000000000000000000, 0.000000000000000000 ) ) ;
#2 = DIRECTION ( 'NONE',  ( -0.000000000000000000, -0.000000000000000000, -1.000000000000000000 ) ) ;
#3 = DIRECTION ( 'NONE',  ( 1.000000000000000000, 0.000000000000000000, 0.000000000000000000 ) ) ;
#4 = DIRECTION ( 'NONE',  ( 0.000000000000000000, 0.000000000000000000, 1.000000000000000000 ) ) ;
#5 = CARTESIAN_POINT ( 'NONE',  ( -6.000000000000000888, 0.000000000000000000, 5.000000000000000000 ) ) ;
#6 = CC_DESIGN_PERSON_AND_ORGANIZATION_ASSIGNMENT ( #53, #193, ( #93 ) ) ;
#7 = VERTEX_POINT ( 'NONE', #60 ) ;
#8 = EDGE_CURVE ( 'NONE', #13, #74, #39, .T. ) ;
#9 = EDGE_LOOP ( 'NONE', ( #203, #43, #240, #195 ) ) ;
#10 = DIRECTION ( 'NONE',  ( 1.000000000000000000, 0.000000000000000000, 0.000000000000000000 ) ) ;
#11 = CALENDAR_DATE ( 2023, 12, 2 ) ;
#12 = CC_DESIGN_APPROVAL ( #183, ( #93 ) ) ;
#13 = VERTEX_POINT ( 'NONE', #101 ) ;
#14 = CIRCLE ( 'NONE', #33, 3.000000000000000444 ) ;
#15 = AXIS2_PLACEMENT_3D ( 'NONE', #82, #123, #65 ) ;
#16 = PERSON_AND_ORGANIZATION ( #48, #148 ) ;
#17 = EDGE_LOOP ( 'NONE', ( #84, #174, #165, #150 ) ) ;
#18 = CALENDAR_DATE ( 2023, 12, 2 ) ;
#19 = ORIENTED_EDGE ( 'NONE', *, *, #228, .T. ) ;
#20 = ADVANCED_FACE ( 'NONE', ( #194 ), #116, .T. ) ;
#21 = CARTESIAN_POINT ( 'NONE',  ( 0.000000000000000000, 0.000000000000000000, 315.0000000000000000 ) ) ;
#22 = ADVANCED_FACE ( 'NONE', ( #28 ), #95, .T. ) ;
#23 = FACE_OUTER_BOUND ( 'NONE', #135, .T. ) ;
#24 = VECTOR ( 'NONE', #140, 1000.000000000000000 ) ;
#25 = AXIS2_PLACEMENT_3D ( 'NONE', #243, #81, #227 ) ;
#26 = DATE_AND_TIME ( #18, #170 ) ;
#27 = APPLICATION_PROTOCOL_DEFINITION ( 'international standard', 'config_control_design', 1994, #229 ) ;
#28 = FACE_OUTER_BOUND ( 'NONE', #17, .T. ) ;
#29 = DATE_AND_TIME ( #161, #132 ) ;
#30 = CARTESIAN_POINT ( 'NONE',  ( -3.000000000000000444, 0.000000000000000000, 5.000000000000000000 ) ) ;
#31 = PERSON_AND_ORGANIZATION ( #48, #148 ) ;
#32 = DIRECTION ( 'NONE',  ( 0.000000000000000000, 0.000000000000000000, 1.000000000000000000 ) ) ;
#33 = AXIS2_PLACEMENT_3D ( 'NONE', #156, #176, #238 ) ;
#34 = LOCAL_TIME ( 13, 18, 47.00000000000000000, #51 ) ;
#35 = COORDINATED_UNIVERSAL_TIME_OFFSET ( 1, 0, .AHEAD. ) ;
#36 = CARTESIAN_POINT ( 'NONE',  ( 0.000000000000000000, 0.000000000000000000, 0.000000000000000000 ) ) ;
#37 = CARTESIAN_POINT ( 'NONE',  ( 3.000000000000000444, 3.673940397442060361E-16, 315.0000000000000000 ) ) ;
#38 = EDGE_CURVE ( 'NONE', #67, #74, #118, .T. ) ;
#39 = LINE ( 'NONE', #37, #209 ) ;
#40 = CARTESIAN_POINT ( 'NONE',  ( -6.000000000000000888, 0.000000000000000000, 0.000000000000000000 ) ) ;
#41 = CC_DESIGN_PERSON_AND_ORGANIZATION_ASSIGNMENT ( #217, #249, ( #171 ) ) ;
#42 =( NAMED_UNIT ( * ) PLANE_ANGLE_UNIT ( ) SI_UNIT ( $, .RADIAN. ) );
#43 = ORIENTED_EDGE ( 'NONE', *, *, #8, .T. ) ;
#44 = UNCERTAINTY_MEASURE_WITH_UNIT (LENGTH_MEASURE( 1.000000000000000082E-05 ), #223, 'distance_accuracy_value', 'NONE');
#45 = EDGE_CURVE ( 'NONE', #90, #120, #224, .T. ) ;
#46 = AXIS2_PLACEMENT_3D ( 'NONE', #221, #145, #124 ) ;
#47 = CC_DESIGN_APPROVAL ( #166, ( #64 ) ) ;
#48 = PERSON ( 'NEURÈENÝ', 'NEURÈENÝ', 'NEURÈENÝ', ('NEURÈENÝ'), ('NEURÈENÝ'), ('NEURÈENÝ') ) ;
#49 = CC_DESIGN_PERSON_AND_ORGANIZATION_ASSIGNMENT ( #91, #236, ( #64 ) ) ;
#50 = CC_DESIGN_DATE_AND_TIME_ASSIGNMENT ( #213, #255, ( #107 ) ) ;
#51 = COORDINATED_UNIVERSAL_TIME_OFFSET ( 1, 0, .AHEAD. ) ;
#52 = CARTESIAN_POINT ( 'NONE',  ( 6.000000000000000888, 7.347880794884120722E-16, 0.000000000000000000 ) ) ;
#53 = PERSON_AND_ORGANIZATION ( #48, #148 ) ;
#54 = PLANE ( 'NONE',  #152 ) ;
#55 = APPROVAL_ROLE ( '' ) ;
#56 = CARTESIAN_POINT ( 'NONE',  ( 0.000000000000000000, 0.000000000000000000, 315.0000000000000000 ) ) ;
#57 = CARTESIAN_POINT ( 'NONE',  ( 0.000000000000000000, 0.000000000000000000, 5.000000000000000000 ) ) ;
#58 = AXIS2_PLACEMENT_3D ( 'NONE', #89, #202, #73 ) ;
#59 = AXIS2_PLACEMENT_3D ( 'NONE', #181, #146, #204 ) ;
#60 = CARTESIAN_POINT ( 'NONE',  ( -3.000000000000000444, 0.000000000000000000, 315.0000000000000000 ) ) ;
#61 = APPROVAL ( #253, 'NEURÈENÝ' ) ;
#62 = DIRECTION ( 'NONE',  ( 1.000000000000000000, 0.000000000000000000, 0.000000000000000000 ) ) ;
#63 = DIRECTION ( 'NONE',  ( 0.000000000000000000, 0.000000000000000000, 1.000000000000000000 ) ) ;
#64 = SECURITY_CLASSIFICATION ( '', '', #196 ) ;
#65 = DIRECTION ( 'NONE',  ( -1.000000000000000000, 0.000000000000000000, 0.000000000000000000 ) ) ;
#66 = EDGE_CURVE ( 'NONE', #13, #7, #147, .T. ) ;
#67 = VERTEX_POINT ( 'NONE', #30 ) ;
#68 = EDGE_CURVE ( 'NONE', #74, #67, #14, .T. ) ;
#69 = VECTOR ( 'NONE', #201, 1000.000000000000000 ) ;
#70 = ORIENTED_EDGE ( 'NONE', *, *, #168, .T. ) ;
#71 = APPROVAL_ROLE ( '' ) ;
#72 = AXIS2_PLACEMENT_3D ( 'NONE', #1, #4, #62 ) ;
#73 = DIRECTION ( 'NONE',  ( 1.000000000000000000, 0.000000000000000000, 0.000000000000000000 ) ) ;
#74 = VERTEX_POINT ( 'NONE', #78 ) ;
#75 = APPROVAL_STATUS ( 'not_yet_approved' ) ;
#76 = CARTESIAN_POINT ( 'NONE',  ( 6.000000000000000888, 7.347880794884120722E-16, 5.000000000000000000 ) ) ;
#77 = COORDINATED_UNIVERSAL_TIME_OFFSET ( 1, 0, .AHEAD. ) ;
#78 = CARTESIAN_POINT ( 'NONE',  ( 3.000000000000000444, 3.673940397442060361E-16, 5.000000000000000000 ) ) ;
#79 = CC_DESIGN_DATE_AND_TIME_ASSIGNMENT ( #139, #117, ( #64 ) ) ;
#80 = EDGE_LOOP ( 'NONE', ( #97, #102 ) ) ;
#81 = DIRECTION ( 'NONE',  ( 0.000000000000000000, 0.000000000000000000, 1.000000000000000000 ) ) ;
#82 = CARTESIAN_POINT ( 'NONE',  ( 0.000000000000000000, 0.000000000000000000, 315.0000000000000000 ) ) ;
#83 = AXIS2_PLACEMENT_3D ( 'NONE', #114, #191, #10 ) ;
#84 = ORIENTED_EDGE ( 'NONE', *, *, #87, .F. ) ;
#85 = PRODUCT_DEFINITION_SHAPE ( 'NONE', 'NONE',  #107 ) ;
#86 = APPLICATION_CONTEXT ( 'configuration controlled 3d designs of mechanical parts and assemblies' ) ;
#87 = EDGE_CURVE ( 'NONE', #120, #92, #252, .T. ) ;
#88 = DIRECTION ( 'NONE',  ( 0.000000000000000000, 0.000000000000000000, 1.000000000000000000 ) ) ;
#89 = CARTESIAN_POINT ( 'NONE',  ( 0.000000000000000000, 0.000000000000000000, 315.0000000000000000 ) ) ;
#90 = VERTEX_POINT ( 'NONE', #234 ) ;
#91 = PERSON_AND_ORGANIZATION ( #48, #148 ) ;
#92 = VERTEX_POINT ( 'NONE', #52 ) ;
#93 = PRODUCT_DEFINITION_FORMATION_WITH_SPECIFIED_SOURCE ( 'LIBOVOLNÝ', '', #171, .NOT_KNOWN. ) ;
#94 = CC_DESIGN_APPROVAL ( #61, ( #107 ) ) ;
#95 = CYLINDRICAL_SURFACE ( 'NONE', #46, 6.000000000000000888 ) ;
#96 = APPROVAL_ROLE ( '' ) ;
#97 = ORIENTED_EDGE ( 'NONE', *, *, #189, .F. ) ;
#98 = DIRECTION ( 'NONE',  ( 1.000000000000000000, 0.000000000000000000, -0.000000000000000000 ) ) ;
#99 = PERSON_AND_ORGANIZATION_ROLE ( 'design_supplier' ) ;
#100 = DIRECTION ( 'NONE',  ( 0.000000000000000000, 0.000000000000000000, 1.000000000000000000 ) ) ;
#101 = CARTESIAN_POINT ( 'NONE',  ( 3.000000000000000444, 3.673940397442060361E-16, 315.0000000000000000 ) ) ;
#102 = ORIENTED_EDGE ( 'NONE', *, *, #228, .F. ) ;
#103 = LINE ( 'NONE', #142, #143 ) ;
#104 = FACE_OUTER_BOUND ( 'NONE', #9, .T. ) ;
#105 = FACE_OUTER_BOUND ( 'NONE', #182, .T. ) ;
#106 =( GEOMETRIC_REPRESENTATION_CONTEXT ( 3 ) GLOBAL_UNCERTAINTY_ASSIGNED_CONTEXT ( ( #44 ) ) GLOBAL_UNIT_ASSIGNED_CONTEXT ( ( #223, #42, #127 ) ) REPRESENTATION_CONTEXT ( 'NONE', 'WORKASPACE' ) );
#107 = PRODUCT_DEFINITION ( 'NEZNÁMÝ', '', #93, #178 ) ;
#108 = AXIS2_PLACEMENT_3D ( 'NONE', #57, #2, #222 ) ;
#109 = AXIS2_PLACEMENT_3D ( 'NONE', #21, #100, #244 ) ;
#110 = APPROVAL_DATE_TIME ( #26, #166 ) ;
#111 = MANIFOLD_SOLID_BREP ( 'Pøidat vysunutím3', #232 ) ;
#112 = ADVANCED_FACE ( 'NONE', ( #159 ), #54, .F. ) ;
#113 = APPLICATION_PROTOCOL_DEFINITION ( 'international standard', 'config_control_design', 1994, #86 ) ;
#114 = CARTESIAN_POINT ( 'NONE',  ( 0.000000000000000000, 0.000000000000000000, 5.000000000000000000 ) ) ;
#115 = APPROVAL_DATE_TIME ( #29, #183 ) ;
#116 = CYLINDRICAL_SURFACE ( 'NONE', #108, 6.000000000000000888 ) ;
#117 = DATE_TIME_ROLE ( 'classification_date' ) ;
#118 = CIRCLE ( 'NONE', #197, 3.000000000000000444 ) ;
#119 = AXIS2_PLACEMENT_3D ( 'NONE', #36, #63, #169 ) ;
#120 = VERTEX_POINT ( 'NONE', #177 ) ;
#121 = MECHANICAL_CONTEXT ( 'NONE', #229, 'mechanical' ) ;
#122 = CC_DESIGN_PERSON_AND_ORGANIZATION_ASSIGNMENT ( #141, #251, ( #107 ) ) ;
#123 = DIRECTION ( 'NONE',  ( -0.000000000000000000, -0.000000000000000000, -1.000000000000000000 ) ) ;
#124 = DIRECTION ( 'NONE',  ( -1.000000000000000000, 0.000000000000000000, 0.000000000000000000 ) ) ;
#125 = CYLINDRICAL_SURFACE ( 'NONE', #172, 3.000000000000000444 ) ;
#126 = ORIENTED_EDGE ( 'NONE', *, *, #45, .T. ) ;
#127 =( NAMED_UNIT ( * ) SI_UNIT ( $, .STERADIAN. ) SOLID_ANGLE_UNIT ( ) );
#128 = DIRECTION ( 'NONE',  ( -0.000000000000000000, -0.000000000000000000, -1.000000000000000000 ) ) ;
#129 = EDGE_LOOP ( 'NONE', ( #173, #242, #19, #231 ) ) ;
#130 = CIRCLE ( 'NONE', #59, 6.000000000000000888 ) ;
#131 = AXIS2_PLACEMENT_3D ( 'NONE', #162, #167, #3 ) ;
#132 = LOCAL_TIME ( 13, 18, 47.00000000000000000, #77 ) ;
#133 = EDGE_CURVE ( 'NONE', #7, #13, #187, .T. ) ;
#134 = ADVANCED_FACE ( 'NONE', ( #206 ), #220, .T. ) ;
#135 = EDGE_LOOP ( 'NONE', ( #192, #144, #70, #241 ) ) ;
#136 = COORDINATED_UNIVERSAL_TIME_OFFSET ( 1, 0, .AHEAD. ) ;
#137 = DIRECTION ( 'NONE',  ( -0.000000000000000000, -0.000000000000000000, -1.000000000000000000 ) ) ;
#138 = EDGE_LOOP ( 'NONE', ( #230, #247 ) ) ;
#139 = DATE_AND_TIME ( #179, #188 ) ;
#140 = DIRECTION ( 'NONE',  ( -0.000000000000000000, -0.000000000000000000, -1.000000000000000000 ) ) ;
#141 = PERSON_AND_ORGANIZATION ( #48, #148 ) ;
#142 = CARTESIAN_POINT ( 'NONE',  ( -3.000000000000000444, 0.000000000000000000, 315.0000000000000000 ) ) ;
#143 = VECTOR ( 'NONE', #128, 1000.000000000000000 ) ;
#144 = ORIENTED_EDGE ( 'NONE', *, *, #133, .F. ) ;
#145 = DIRECTION ( 'NONE',  ( -0.000000000000000000, -0.000000000000000000, -1.000000000000000000 ) ) ;
#146 = DIRECTION ( 'NONE',  ( 0.000000000000000000, 0.000000000000000000, 1.000000000000000000 ) ) ;
#147 = CIRCLE ( 'NONE', #58, 3.000000000000000444 ) ;
#148 = ORGANIZATION ( 'NEURÈENÝ', 'NEURÈENÝ', '' ) ;
#149 = DIRECTION ( 'NONE',  ( -0.000000000000000000, -0.000000000000000000, -1.000000000000000000 ) ) ;
#150 = ORIENTED_EDGE ( 'NONE', *, *, #189, .T. ) ;
#151 = SHAPE_DEFINITION_REPRESENTATION ( #85, #160 ) ;
#152 = AXIS2_PLACEMENT_3D ( 'NONE', #216, #32, #98 ) ;
#153 = ADVANCED_FACE ( 'NONE', ( #23 ), #164, .T. ) ;
#154 = ADVANCED_FACE ( 'NONE', ( #104 ), #125, .T. ) ;
#155 = CALENDAR_DATE ( 2023, 12, 2 ) ;
#156 = CARTESIAN_POINT ( 'NONE',  ( 0.000000000000000000, 0.000000000000000000, 5.000000000000000000 ) ) ;
#157 = EDGE_LOOP ( 'NONE', ( #237, #235 ) ) ;
#158 = PERSON_AND_ORGANIZATION ( #48, #148 ) ;
#159 = FACE_OUTER_BOUND ( 'NONE', #80, .T. ) ;
#160 = ADVANCED_BREP_SHAPE_REPRESENTATION ( '1bc8', ( #111, #226 ), #106 ) ;
#161 = CALENDAR_DATE ( 2023, 12, 2 ) ;
#162 = CARTESIAN_POINT ( 'NONE',  ( 0.000000000000000000, 0.000000000000000000, 315.0000000000000000 ) ) ;
#163 = COORDINATED_UNIVERSAL_TIME_OFFSET ( 1, 0, .AHEAD. ) ;
#164 = CYLINDRICAL_SURFACE ( 'NONE', #15, 3.000000000000000444 ) ;
#165 = ORIENTED_EDGE ( 'NONE', *, *, #246, .T. ) ;
#166 = APPROVAL ( #239, 'NEURÈENÝ' ) ;
#167 = DIRECTION ( 'NONE',  ( 0.000000000000000000, 0.000000000000000000, 1.000000000000000000 ) ) ;
#168 = EDGE_CURVE ( 'NONE', #7, #67, #103, .T. ) ;
#169 = DIRECTION ( 'NONE',  ( 1.000000000000000000, 0.000000000000000000, 0.000000000000000000 ) ) ;
#170 = LOCAL_TIME ( 13, 18, 47.00000000000000000, #35 ) ;
#171 = PRODUCT ( '1bc8', '1bc8', '', ( #121 ) ) ;
#172 = AXIS2_PLACEMENT_3D ( 'NONE', #56, #149, #185 ) ;
#173 = ORIENTED_EDGE ( 'NONE', *, *, #180, .F. ) ;
#174 = ORIENTED_EDGE ( 'NONE', *, *, #45, .F. ) ;
#175 = APPROVAL_PERSON_ORGANIZATION ( #31, #183, #96 ) ;
#176 = DIRECTION ( 'NONE',  ( 0.000000000000000000, 0.000000000000000000, 1.000000000000000000 ) ) ;
#177 = CARTESIAN_POINT ( 'NONE',  ( 6.000000000000000888, 7.347880794884120722E-16, 5.000000000000000000 ) ) ;
#178 = DESIGN_CONTEXT ( 'detailed design', #86, 'design' ) ;
#179 = CALENDAR_DATE ( 2023, 12, 2 ) ;
#180 = EDGE_CURVE ( 'NONE', #120, #90, #130, .T. ) ;
#181 = CARTESIAN_POINT ( 'NONE',  ( 0.000000000000000000, 0.000000000000000000, 5.000000000000000000 ) ) ;
#182 = EDGE_LOOP ( 'NONE', ( #126, #214 ) ) ;
#183 = APPROVAL ( #75, 'NEURÈENÝ' ) ;
#184 = LINE ( 'NONE', #5, #69 ) ;
#185 = DIRECTION ( 'NONE',  ( -1.000000000000000000, 0.000000000000000000, 0.000000000000000000 ) ) ;
#186 = PLANE ( 'NONE',  #25 ) ;
#187 = CIRCLE ( 'NONE', #131, 3.000000000000000444 ) ;
#188 = LOCAL_TIME ( 13, 18, 47.00000000000000000, #163 ) ;
#189 = EDGE_CURVE ( 'NONE', #212, #92, #250, .T. ) ;
#190 = DIRECTION ( 'NONE',  ( 1.000000000000000000, 0.000000000000000000, 0.000000000000000000 ) ) ;
#191 = DIRECTION ( 'NONE',  ( 0.000000000000000000, 0.000000000000000000, 1.000000000000000000 ) ) ;
#192 = ORIENTED_EDGE ( 'NONE', *, *, #8, .F. ) ;
#193 = PERSON_AND_ORGANIZATION_ROLE ( 'creator' ) ;
#194 = FACE_OUTER_BOUND ( 'NONE', #129, .T. ) ;
#195 = ORIENTED_EDGE ( 'NONE', *, *, #168, .F. ) ;
#196 = SECURITY_CLASSIFICATION_LEVEL ( 'unclassified' ) ;
#197 = AXIS2_PLACEMENT_3D ( 'NONE', #199, #254, #205 ) ;
#198 = CC_DESIGN_SECURITY_CLASSIFICATION ( #64, ( #93 ) ) ;
#199 = CARTESIAN_POINT ( 'NONE',  ( 0.000000000000000000, 0.000000000000000000, 5.000000000000000000 ) ) ;
#200 = APPROVAL_DATE_TIME ( #233, #61 ) ;
#201 = DIRECTION ( 'NONE',  ( -0.000000000000000000, -0.000000000000000000, -1.000000000000000000 ) ) ;
#202 = DIRECTION ( 'NONE',  ( 0.000000000000000000, 0.000000000000000000, 1.000000000000000000 ) ) ;
#203 = ORIENTED_EDGE ( 'NONE', *, *, #66, .F. ) ;
#204 = DIRECTION ( 'NONE',  ( 1.000000000000000000, 0.000000000000000000, 0.000000000000000000 ) ) ;
#205 = DIRECTION ( 'NONE',  ( 1.000000000000000000, 0.000000000000000000, 0.000000000000000000 ) ) ;
#206 = FACE_OUTER_BOUND ( 'NONE', #138, .T. ) ;
#207 = LOCAL_TIME ( 13, 18, 47.00000000000000000, #136 ) ;
#208 = CC_DESIGN_PERSON_AND_ORGANIZATION_ASSIGNMENT ( #215, #99, ( #93 ) ) ;
#209 = VECTOR ( 'NONE', #137, 1000.000000000000000 ) ;
#210 = APPROVAL_PERSON_ORGANIZATION ( #16, #166, #55 ) ;
#211 = CARTESIAN_POINT ( 'NONE',  ( 0.000000000000000000, 0.000000000000000000, 0.000000000000000000 ) ) ;
#212 = VERTEX_POINT ( 'NONE', #40 ) ;
#213 = DATE_AND_TIME ( #11, #34 ) ;
#214 = ORIENTED_EDGE ( 'NONE', *, *, #180, .T. ) ;
#215 = PERSON_AND_ORGANIZATION ( #48, #148 ) ;
#216 = CARTESIAN_POINT ( 'NONE',  ( 0.000000000000000000, 0.000000000000000000, 0.000000000000000000 ) ) ;
#217 = PERSON_AND_ORGANIZATION ( #48, #148 ) ;
#218 = CIRCLE ( 'NONE', #72, 6.000000000000000888 ) ;
#219 = PRODUCT_RELATED_PRODUCT_CATEGORY ( 'detail', '', ( #171 ) ) ;
#220 = PLANE ( 'NONE',  #109 ) ;
#221 = CARTESIAN_POINT ( 'NONE',  ( 0.000000000000000000, 0.000000000000000000, 5.000000000000000000 ) ) ;
#222 = DIRECTION ( 'NONE',  ( -1.000000000000000000, 0.000000000000000000, 0.000000000000000000 ) ) ;
#223 =( LENGTH_UNIT ( ) NAMED_UNIT ( * ) SI_UNIT ( .MILLI., .METRE. ) );
#224 = CIRCLE ( 'NONE', #83, 6.000000000000000888 ) ;
#225 = FACE_BOUND ( 'NONE', #157, .T. ) ;
#226 = AXIS2_PLACEMENT_3D ( 'NONE', #211, #88, #190 ) ;
#227 = DIRECTION ( 'NONE',  ( 1.000000000000000000, 0.000000000000000000, -0.000000000000000000 ) ) ;
#228 = EDGE_CURVE ( 'NONE', #92, #212, #218, .T. ) ;
#229 = APPLICATION_CONTEXT ( 'configuration controlled 3d designs of mechanical parts and assemblies' ) ;
#230 = ORIENTED_EDGE ( 'NONE', *, *, #133, .T. ) ;
#231 = ORIENTED_EDGE ( 'NONE', *, *, #246, .F. ) ;
#232 = CLOSED_SHELL ( 'NONE', ( #154, #20, #22, #248, #112, #153, #134 ) ) ;
#233 = DATE_AND_TIME ( #155, #207 ) ;
#234 = CARTESIAN_POINT ( 'NONE',  ( -6.000000000000000888, 0.000000000000000000, 5.000000000000000000 ) ) ;
#235 = ORIENTED_EDGE ( 'NONE', *, *, #68, .F. ) ;
#236 = PERSON_AND_ORGANIZATION_ROLE ( 'classification_officer' ) ;
#237 = ORIENTED_EDGE ( 'NONE', *, *, #38, .F. ) ;
#238 = DIRECTION ( 'NONE',  ( 1.000000000000000000, 0.000000000000000000, 0.000000000000000000 ) ) ;
#239 = APPROVAL_STATUS ( 'not_yet_approved' ) ;
#240 = ORIENTED_EDGE ( 'NONE', *, *, #68, .T. ) ;
#241 = ORIENTED_EDGE ( 'NONE', *, *, #38, .T. ) ;
#242 = ORIENTED_EDGE ( 'NONE', *, *, #87, .T. ) ;
#243 = CARTESIAN_POINT ( 'NONE',  ( 0.000000000000000000, 0.000000000000000000, 5.000000000000000000 ) ) ;
#244 = DIRECTION ( 'NONE',  ( 1.000000000000000000, 0.000000000000000000, -0.000000000000000000 ) ) ;
#245 = APPROVAL_PERSON_ORGANIZATION ( #158, #61, #71 ) ;
#246 = EDGE_CURVE ( 'NONE', #90, #212, #184, .T. ) ;
#247 = ORIENTED_EDGE ( 'NONE', *, *, #66, .T. ) ;
#248 = ADVANCED_FACE ( 'NONE', ( #225, #105 ), #186, .T. ) ;
#249 = PERSON_AND_ORGANIZATION_ROLE ( 'design_owner' ) ;
#250 = CIRCLE ( 'NONE', #119, 6.000000000000000888 ) ;
#251 = PERSON_AND_ORGANIZATION_ROLE ( 'creator' ) ;
#252 = LINE ( 'NONE', #76, #24 ) ;
#253 = APPROVAL_STATUS ( 'not_yet_approved' ) ;
#254 = DIRECTION ( 'NONE',  ( 0.000000000000000000, 0.000000000000000000, 1.000000000000000000 ) ) ;
#255 = DATE_TIME_ROLE ( 'creation_date' ) ;
ENDSEC;
END-ISO-10303-21;
