ISO-10303-21;
HEADER;
FILE_DESCRIPTION (( 'STEP AP203' ),
    '1' );
FILE_NAME ('0060.STEP',
    '2022-07-07T10:38:35',
    ( '' ),
    ( '' ),
    'SwSTEP 2.0',
    'SolidWorks 2019',
    '' );
FILE_SCHEMA (( 'CONFIG_CONTROL_DESIGN' ));
ENDSEC;

DATA;
#1 = DIRECTION ( 'NONE',  ( 1.000000000000000000, 0.000000000000000000, 0.000000000000000000 ) ) ;
#2 = ORIENTED_EDGE ( 'NONE', *, *, #97, .T. ) ;
#3 = PLANE ( 'NONE',  #178 ) ;
#4 = ORIENTED_EDGE ( 'NONE', *, *, #182, .T. ) ;
#5 = DIRECTION ( 'NONE',  ( 0.000000000000000000, 0.000000000000000000, 1.000000000000000000 ) ) ;
#6 = DIRECTION ( 'NONE',  ( 1.000000000000000000, 0.000000000000000000, 0.000000000000000000 ) ) ;
#7 = SECURITY_CLASSIFICATION_LEVEL ( 'unclassified' ) ;
#8 = APPROVAL_STATUS ( 'not_yet_approved' ) ;
#9 = ADVANCED_FACE ( 'NONE', ( #136 ), #69, .F. ) ;
#10 = DATE_AND_TIME ( #103, #195 ) ;
#11 = DATE_AND_TIME ( #229, #132 ) ;
#12 = DIRECTION ( 'NONE',  ( -0.000000000000000000, -0.000000000000000000, -1.000000000000000000 ) ) ;
#13 = AXIS2_PLACEMENT_3D ( 'NONE', #281, #190, #237 ) ;
#14 = DESIGN_CONTEXT ( 'detailed design', #80, 'design' ) ;
#15 = AXIS2_PLACEMENT_3D ( 'NONE', #37, #123, #204 ) ;
#16 = EDGE_LOOP ( 'NONE', ( #165, #305, #198, #17 ) ) ;
#17 = ORIENTED_EDGE ( 'NONE', *, *, #246, .F. ) ;
#18 = DIRECTION ( 'NONE',  ( 1.000000000000000000, 0.000000000000000000, 0.000000000000000000 ) ) ;
#19 = LINE ( 'NONE', #214, #201 ) ;
#20 = LINE ( 'NONE', #45, #181 ) ;
#21 = CARTESIAN_POINT ( 'NONE',  ( 0.000000000000000000, 0.000000000000000000, 161.5000000000000000 ) ) ;
#22 = FACE_OUTER_BOUND ( 'NONE', #16, .T. ) ;
#23 = ORIENTED_EDGE ( 'NONE', *, *, #179, .F. ) ;
#24 = LOCAL_TIME ( 12, 38, 35.00000000000000000, #82 ) ;
#25 = CARTESIAN_POINT ( 'NONE',  ( 0.000000000000000000, 0.000000000000000000, 161.5000000000000000 ) ) ;
#26 = ORIENTED_EDGE ( 'NONE', *, *, #36, .F. ) ;
#27 =( NAMED_UNIT ( * ) PLANE_ANGLE_UNIT ( ) SI_UNIT ( $, .RADIAN. ) );
#28 = DIRECTION ( 'NONE',  ( -1.000000000000000000, 0.000000000000000000, 0.000000000000000000 ) ) ;
#29 = PRODUCT_DEFINITION ( 'NEZNÁMÝ', '', #294, #14 ) ;
#30 = CALENDAR_DATE ( 2022, 7, 7 ) ;
#31 = EDGE_LOOP ( 'NONE', ( #163, #278, #50, #23 ) ) ;
#32 = APPROVAL_ROLE ( '' ) ;
#33 = ADVANCED_FACE ( 'NONE', ( #88 ), #279, .T. ) ;
#34 = COORDINATED_UNIVERSAL_TIME_OFFSET ( 1, 0, .AHEAD. ) ;
#35 = APPLICATION_PROTOCOL_DEFINITION ( 'international standard', 'config_control_design', 1994, #80 ) ;
#36 = EDGE_CURVE ( 'NONE', #142, #168, #148, .T. ) ;
#37 = CARTESIAN_POINT ( 'NONE',  ( 0.000000000000000000, 0.000000000000000000, 0.000000000000000000 ) ) ;
#38 = ORIENTED_EDGE ( 'NONE', *, *, #78, .T. ) ;
#39 = EDGE_CURVE ( 'NONE', #121, #48, #209, .T. ) ;
#40 = ORIENTED_EDGE ( 'NONE', *, *, #78, .F. ) ;
#41 = AXIS2_PLACEMENT_3D ( 'NONE', #259, #239, #135 ) ;
#42 = CC_DESIGN_APPROVAL ( #213, ( #302 ) ) ;
#43 = ORIENTED_EDGE ( 'NONE', *, *, #264, .T. ) ;
#44 = EDGE_CURVE ( 'NONE', #52, #96, #159, .T. ) ;
#45 = CARTESIAN_POINT ( 'NONE',  ( -1.500000000000000222, 0.000000000000000000, 1.500000000000000000 ) ) ;
#46 = DIRECTION ( 'NONE',  ( 1.000000000000000000, 0.000000000000000000, 0.000000000000000000 ) ) ;
#47 = DIRECTION ( 'NONE',  ( 1.000000000000000000, 0.000000000000000000, -0.000000000000000000 ) ) ;
#48 = VERTEX_POINT ( 'NONE', #113 ) ;
#49 = DIRECTION ( 'NONE',  ( 0.000000000000000000, 0.000000000000000000, 1.000000000000000000 ) ) ;
#50 = ORIENTED_EDGE ( 'NONE', *, *, #54, .T. ) ;
#51 = CARTESIAN_POINT ( 'NONE',  ( 0.9500000000000000666, 0.000000000000000000, 1.500000000000003553 ) ) ;
#52 = VERTEX_POINT ( 'NONE', #211 ) ;
#53 = PERSON_AND_ORGANIZATION_ROLE ( 'design_owner' ) ;
#54 = EDGE_CURVE ( 'NONE', #96, #119, #233, .T. ) ;
#55 = ORIENTED_EDGE ( 'NONE', *, *, #153, .T. ) ;
#56 = CIRCLE ( 'NONE', #106, 0.9500000000000000666 ) ;
#57 = AXIS2_PLACEMENT_3D ( 'NONE', #107, #12, #79 ) ;
#58 = CC_DESIGN_PERSON_AND_ORGANIZATION_ASSIGNMENT ( #105, #299, ( #302 ) ) ;
#59 = COORDINATED_UNIVERSAL_TIME_OFFSET ( 1, 0, .AHEAD. ) ;
#60 = ADVANCED_BREP_SHAPE_REPRESENTATION ( '0060', ( #206, #15 ), #269 ) ;
#61 = PERSON_AND_ORGANIZATION ( #108, #242 ) ;
#62 = DATE_AND_TIME ( #129, #117 ) ;
#63 = CYLINDRICAL_SURFACE ( 'NONE', #57, 1.500000000000000222 ) ;
#64 = CIRCLE ( 'NONE', #110, 1.500000000000000222 ) ;
#65 = CC_DESIGN_APPROVAL ( #134, ( #294 ) ) ;
#66 = EDGE_CURVE ( 'NONE', #168, #111, #176, .T. ) ;
#67 = DIRECTION ( 'NONE',  ( 0.000000000000000000, 0.000000000000000000, 1.000000000000000000 ) ) ;
#68 = DIRECTION ( 'NONE',  ( -1.000000000000000000, 0.000000000000000000, 0.000000000000000000 ) ) ;
#69 = TOROIDAL_SURFACE ( 'NONE', #280, 0.9500000000000000666, 0.2000000000000000111 ) ;
#70 = CC_DESIGN_APPROVAL ( #254, ( #29 ) ) ;
#71 = DIRECTION ( 'NONE',  ( -0.000000000000000000, -0.000000000000000000, -1.000000000000000000 ) ) ;
#72 = DIRECTION ( 'NONE',  ( -0.000000000000000000, -0.000000000000000000, -1.000000000000000000 ) ) ;
#73 = CYLINDRICAL_SURFACE ( 'NONE', #232, 0.7500000000000001110 ) ;
#74 = DIRECTION ( 'NONE',  ( 1.000000000000000000, 0.000000000000000000, 0.000000000000000000 ) ) ;
#75 = CARTESIAN_POINT ( 'NONE',  ( 1.500000000000000222, 1.836970198721030181E-16, 0.000000000000000000 ) ) ;
#76 = EDGE_LOOP ( 'NONE', ( #220, #104, #227, #236 ) ) ;
#77 = DIRECTION ( 'NONE',  ( -0.000000000000000000, -0.000000000000000000, -1.000000000000000000 ) ) ;
#78 = EDGE_CURVE ( 'NONE', #121, #168, #19, .T. ) ;
#79 = DIRECTION ( 'NONE',  ( -1.000000000000000000, 0.000000000000000000, 0.000000000000000000 ) ) ;
#80 = APPLICATION_CONTEXT ( 'configuration controlled 3d designs of mechanical parts and assemblies' ) ;
#81 = CIRCLE ( 'NONE', #41, 0.2000000000000000944 ) ;
#82 = COORDINATED_UNIVERSAL_TIME_OFFSET ( 1, 0, .AHEAD. ) ;
#83 =( NAMED_UNIT ( * ) SI_UNIT ( $, .STERADIAN. ) SOLID_ANGLE_UNIT ( ) );
#84 = PERSON_AND_ORGANIZATION ( #108, #242 ) ;
#85 = PERSON_AND_ORGANIZATION ( #108, #242 ) ;
#86 = ADVANCED_FACE ( 'NONE', ( #91, #238 ), #115, .T. ) ;
#87 = AXIS2_PLACEMENT_3D ( 'NONE', #184, #240, #68 ) ;
#88 = FACE_OUTER_BOUND ( 'NONE', #76, .T. ) ;
#89 = DIRECTION ( 'NONE',  ( 0.000000000000000000, 0.000000000000000000, 1.000000000000000000 ) ) ;
#90 = CARTESIAN_POINT ( 'NONE',  ( 0.000000000000000000, 0.000000000000000000, 161.5000000000000000 ) ) ;
#91 = FACE_BOUND ( 'NONE', #260, .T. ) ;
#92 = AXIS2_PLACEMENT_3D ( 'NONE', #177, #170, #101 ) ;
#93 = CARTESIAN_POINT ( 'NONE',  ( 0.000000000000000000, 0.000000000000000000, 0.000000000000000000 ) ) ;
#94 = CARTESIAN_POINT ( 'NONE',  ( 0.000000000000000000, 0.000000000000000000, 0.000000000000000000 ) ) ;
#95 = DIRECTION ( 'NONE',  ( 1.000000000000000000, 0.000000000000000000, 0.000000000000000000 ) ) ;
#96 = VERTEX_POINT ( 'NONE', #75 ) ;
#97 = EDGE_CURVE ( 'NONE', #48, #121, #241, .T. ) ;
#98 = CARTESIAN_POINT ( 'NONE',  ( -0.7500000000000001110, 0.000000000000000000, 161.5000000000000000 ) ) ;
#99 = CARTESIAN_POINT ( 'NONE',  ( 0.000000000000000000, 0.000000000000000000, 1.500000000000000000 ) ) ;
#100 = ORIENTED_EDGE ( 'NONE', *, *, #295, .T. ) ;
#101 = DIRECTION ( 'NONE',  ( 1.000000000000000000, 0.000000000000000000, 0.000000000000000000 ) ) ;
#102 = CC_DESIGN_DATE_AND_TIME_ASSIGNMENT ( #11, #297, ( #29 ) ) ;
#103 = CALENDAR_DATE ( 2022, 7, 7 ) ;
#104 = ORIENTED_EDGE ( 'NONE', *, *, #276, .F. ) ;
#105 = PERSON_AND_ORGANIZATION ( #108, #242 ) ;
#106 = AXIS2_PLACEMENT_3D ( 'NONE', #144, #164, #1 ) ;
#107 = CARTESIAN_POINT ( 'NONE',  ( 0.000000000000000000, 0.000000000000000000, 1.500000000000000000 ) ) ;
#108 = PERSON ( 'NEURÈENÝ', 'NEURÈENÝ', 'NEURÈENÝ', ('NEURÈENÝ'), ('NEURÈENÝ'), ('NEURÈENÝ') ) ;
#109 = ORIENTED_EDGE ( 'NONE', *, *, #295, .F. ) ;
#110 = AXIS2_PLACEMENT_3D ( 'NONE', #93, #162, #261 ) ;
#111 = VERTEX_POINT ( 'NONE', #118 ) ;
#112 = CARTESIAN_POINT ( 'NONE',  ( 0.000000000000000000, 0.000000000000000000, 161.5000000000000000 ) ) ;
#113 = CARTESIAN_POINT ( 'NONE',  ( 0.7500000000000001110, 9.184850993605150903E-17, 161.5000000000000000 ) ) ;
#114 = DIRECTION ( 'NONE',  ( -0.000000000000000000, -0.000000000000000000, -1.000000000000000000 ) ) ;
#115 = PLANE ( 'NONE',  #13 ) ;
#116 = AXIS2_PLACEMENT_3D ( 'NONE', #94, #89, #160 ) ;
#117 = LOCAL_TIME ( 12, 38, 35.00000000000000000, #271 ) ;
#118 = CARTESIAN_POINT ( 'NONE',  ( -0.9500000000000000666, 1.163414459189985682E-16, 1.500000000000003553 ) ) ;
#119 = VERTEX_POINT ( 'NONE', #166 ) ;
#120 = CARTESIAN_POINT ( 'NONE',  ( 0.7500000000000001110, 9.184850993605150903E-17, 1.700000000000007061 ) ) ;
#121 = VERTEX_POINT ( 'NONE', #98 ) ;
#122 = CARTESIAN_POINT ( 'NONE',  ( 0.000000000000000000, 0.000000000000000000, 0.000000000000000000 ) ) ;
#123 = DIRECTION ( 'NONE',  ( 0.000000000000000000, 0.000000000000000000, 1.000000000000000000 ) ) ;
#124 = CLOSED_SHELL ( 'NONE', ( #255, #230, #285, #33, #86, #205, #171, #208, #9 ) ) ;
#125 = CIRCLE ( 'NONE', #92, 1.500000000000000222 ) ;
#126 = EDGE_LOOP ( 'NONE', ( #151, #26, #186, #109 ) ) ;
#127 = APPROVAL_DATE_TIME ( #62, #254 ) ;
#128 = AXIS2_PLACEMENT_3D ( 'NONE', #212, #185, #95 ) ;
#129 = CALENDAR_DATE ( 2022, 7, 7 ) ;
#130 = VERTEX_POINT ( 'NONE', #51 ) ;
#131 = CC_DESIGN_DATE_AND_TIME_ASSIGNMENT ( #272, #251, ( #302 ) ) ;
#132 = LOCAL_TIME ( 12, 38, 35.00000000000000000, #34 ) ;
#133 = DIRECTION ( 'NONE',  ( 0.000000000000000000, 0.000000000000000000, 1.000000000000000000 ) ) ;
#134 = APPROVAL ( #8, 'NEURÈENÝ' ) ;
#135 = DIRECTION ( 'NONE',  ( 0.000000000000000000, 0.000000000000000000, -1.000000000000000000 ) ) ;
#136 = FACE_OUTER_BOUND ( 'NONE', #126, .T. ) ;
#137 = LINE ( 'NONE', #306, #228 ) ;
#138 = CARTESIAN_POINT ( 'NONE',  ( -0.9500000000000000666, 1.163414459189985682E-16, 1.700000000000007061 ) ) ;
#139 = DIRECTION ( 'NONE',  ( -0.000000000000000000, -0.000000000000000000, -1.000000000000000000 ) ) ;
#140 = APPROVAL_PERSON_ORGANIZATION ( #61, #213, #32 ) ;
#141 = FACE_OUTER_BOUND ( 'NONE', #262, .T. ) ;
#142 = VERTEX_POINT ( 'NONE', #120 ) ;
#143 = CARTESIAN_POINT ( 'NONE',  ( -1.500000000000000222, 0.000000000000000000, 1.500000000000000000 ) ) ;
#144 = CARTESIAN_POINT ( 'NONE',  ( 0.000000000000000000, 0.000000000000000000, 1.500000000000000000 ) ) ;
#145 = ORIENTED_EDGE ( 'NONE', *, *, #197, .F. ) ;
#146 = APPROVAL_STATUS ( 'not_yet_approved' ) ;
#147 = ORIENTED_EDGE ( 'NONE', *, *, #182, .F. ) ;
#148 = CIRCLE ( 'NONE', #193, 0.7500000000000001110 ) ;
#149 = PERSON_AND_ORGANIZATION ( #108, #242 ) ;
#150 = CIRCLE ( 'NONE', #275, 0.9500000000000000666 ) ;
#151 = ORIENTED_EDGE ( 'NONE', *, *, #66, .F. ) ;
#152 = PERSON_AND_ORGANIZATION ( #108, #242 ) ;
#153 = EDGE_CURVE ( 'NONE', #130, #111, #56, .T. ) ;
#154 = DIRECTION ( 'NONE',  ( 1.000000000000000000, 0.000000000000000000, 0.000000000000000000 ) ) ;
#155 = CIRCLE ( 'NONE', #194, 1.500000000000000222 ) ;
#156 = PRODUCT_DEFINITION_SHAPE ( 'NONE', 'NONE',  #29 ) ;
#157 = CC_DESIGN_PERSON_AND_ORGANIZATION_ASSIGNMENT ( #152, #253, ( #29 ) ) ;
#158 = AXIS2_PLACEMENT_3D ( 'NONE', #138, #258, #284 ) ;
#159 = LINE ( 'NONE', #257, #301 ) ;
#160 = DIRECTION ( 'NONE',  ( 1.000000000000000000, 0.000000000000000000, 0.000000000000000000 ) ) ;
#161 = AXIS2_PLACEMENT_3D ( 'NONE', #219, #114, #28 ) ;
#162 = DIRECTION ( 'NONE',  ( 0.000000000000000000, 0.000000000000000000, 1.000000000000000000 ) ) ;
#163 = ORIENTED_EDGE ( 'NONE', *, *, #304, .F. ) ;
#164 = DIRECTION ( 'NONE',  ( -0.000000000000000000, -0.000000000000000000, -1.000000000000000000 ) ) ;
#165 = ORIENTED_EDGE ( 'NONE', *, *, #264, .F. ) ;
#166 = CARTESIAN_POINT ( 'NONE',  ( -1.500000000000000222, 0.000000000000000000, 0.000000000000000000 ) ) ;
#167 = PERSON_AND_ORGANIZATION_ROLE ( 'creator' ) ;
#168 = VERTEX_POINT ( 'NONE', #287 ) ;
#169 = PLANE ( 'NONE',  #218 ) ;
#170 = DIRECTION ( 'NONE',  ( 0.000000000000000000, 0.000000000000000000, 1.000000000000000000 ) ) ;
#171 = ADVANCED_FACE ( 'NONE', ( #286 ), #247, .T. ) ;
#172 = APPROVAL_DATE_TIME ( #202, #134 ) ;
#173 = APPROVAL_ROLE ( '' ) ;
#174 = SHAPE_DEFINITION_REPRESENTATION ( #156, #60 ) ;
#175 = PERSON_AND_ORGANIZATION ( #108, #242 ) ;
#176 = CIRCLE ( 'NONE', #158, 0.2000000000000000944 ) ;
#177 = CARTESIAN_POINT ( 'NONE',  ( 0.000000000000000000, 0.000000000000000000, 1.500000000000000000 ) ) ;
#178 = AXIS2_PLACEMENT_3D ( 'NONE', #122, #283, #215 ) ;
#179 = EDGE_CURVE ( 'NONE', #265, #119, #20, .T. ) ;
#180 = UNCERTAINTY_MEASURE_WITH_UNIT (LENGTH_MEASURE( 1.000000000000000082E-05 ), #245, 'distance_accuracy_value', 'NONE');
#181 = VECTOR ( 'NONE', #71, 1000.000000000000000 ) ;
#182 = EDGE_CURVE ( 'NONE', #48, #142, #137, .T. ) ;
#183 = DIRECTION ( 'NONE',  ( 1.000000000000000000, 0.000000000000000000, 0.000000000000000000 ) ) ;
#184 = CARTESIAN_POINT ( 'NONE',  ( 0.000000000000000000, 0.000000000000000000, 1.500000000000000000 ) ) ;
#185 = DIRECTION ( 'NONE',  ( 0.000000000000000000, 0.000000000000000000, 1.000000000000000000 ) ) ;
#186 = ORIENTED_EDGE ( 'NONE', *, *, #246, .T. ) ;
#187 = AXIS2_PLACEMENT_3D ( 'NONE', #90, #221, #266 ) ;
#188 = FACE_OUTER_BOUND ( 'NONE', #252, .T. ) ;
#189 = EDGE_LOOP ( 'NONE', ( #291, #293 ) ) ;
#190 = DIRECTION ( 'NONE',  ( 0.000000000000000000, 0.000000000000000000, 1.000000000000000000 ) ) ;
#191 = CARTESIAN_POINT ( 'NONE',  ( 0.000000000000000000, 0.000000000000000000, 1.700000000000007061 ) ) ;
#192 = PERSON_AND_ORGANIZATION ( #108, #242 ) ;
#193 = AXIS2_PLACEMENT_3D ( 'NONE', #303, #282, #183 ) ;
#194 = AXIS2_PLACEMENT_3D ( 'NONE', #267, #5, #6 ) ;
#195 = LOCAL_TIME ( 12, 38, 35.00000000000000000, #268 ) ;
#196 = APPLICATION_CONTEXT ( 'configuration controlled 3d designs of mechanical parts and assemblies' ) ;
#197 = EDGE_CURVE ( 'NONE', #119, #96, #64, .T. ) ;
#198 = ORIENTED_EDGE ( 'NONE', *, *, #153, .F. ) ;
#199 = ORIENTED_EDGE ( 'NONE', *, *, #36, .T. ) ;
#200 = APPROVAL_STATUS ( 'not_yet_approved' ) ;
#201 = VECTOR ( 'NONE', #307, 1000.000000000000000 ) ;
#202 = DATE_AND_TIME ( #270, #24 ) ;
#203 = CC_DESIGN_SECURITY_CLASSIFICATION ( #302, ( #294 ) ) ;
#204 = DIRECTION ( 'NONE',  ( 1.000000000000000000, 0.000000000000000000, 0.000000000000000000 ) ) ;
#205 = ADVANCED_FACE ( 'NONE', ( #263 ), #3, .F. ) ;
#206 = MANIFOLD_SOLID_BREP ( 'Zaoblit1', #124 ) ;
#207 = APPROVAL_PERSON_ORGANIZATION ( #175, #254, #173 ) ;
#208 = ADVANCED_FACE ( 'NONE', ( #188 ), #169, .T. ) ;
#209 = CIRCLE ( 'NONE', #217, 0.7500000000000001110 ) ;
#210 = CARTESIAN_POINT ( 'NONE',  ( 0.000000000000000000, 0.000000000000000000, 1.700000000000007061 ) ) ;
#211 = CARTESIAN_POINT ( 'NONE',  ( 1.500000000000000222, 1.836970198721030181E-16, 1.500000000000000000 ) ) ;
#212 = CARTESIAN_POINT ( 'NONE',  ( 0.000000000000000000, 0.000000000000000000, 1.700000000000007061 ) ) ;
#213 = APPROVAL ( #200, 'NEURÈENÝ' ) ;
#214 = CARTESIAN_POINT ( 'NONE',  ( -0.7500000000000001110, 0.000000000000000000, 161.5000000000000000 ) ) ;
#215 = DIRECTION ( 'NONE',  ( 1.000000000000000000, 0.000000000000000000, -0.000000000000000000 ) ) ;
#216 = ORIENTED_EDGE ( 'NONE', *, *, #39, .F. ) ;
#217 = AXIS2_PLACEMENT_3D ( 'NONE', #21, #67, #46 ) ;
#218 = AXIS2_PLACEMENT_3D ( 'NONE', #112, #49, #47 ) ;
#219 = CARTESIAN_POINT ( 'NONE',  ( 0.000000000000000000, 0.000000000000000000, 161.5000000000000000 ) ) ;
#220 = ORIENTED_EDGE ( 'NONE', *, *, #44, .F. ) ;
#221 = DIRECTION ( 'NONE',  ( 0.000000000000000000, 0.000000000000000000, 1.000000000000000000 ) ) ;
#222 = EDGE_LOOP ( 'NONE', ( #147, #216, #38, #43 ) ) ;
#223 = APPLICATION_PROTOCOL_DEFINITION ( 'international standard', 'config_control_design', 1994, #196 ) ;
#224 = CIRCLE ( 'NONE', #128, 0.7500000000000001110 ) ;
#225 = APPROVAL_ROLE ( '' ) ;
#226 = CC_DESIGN_PERSON_AND_ORGANIZATION_ASSIGNMENT ( #192, #53, ( #274 ) ) ;
#227 = ORIENTED_EDGE ( 'NONE', *, *, #179, .T. ) ;
#228 = VECTOR ( 'NONE', #77, 1000.000000000000000 ) ;
#229 = CALENDAR_DATE ( 2022, 7, 7 ) ;
#230 = ADVANCED_FACE ( 'NONE', ( #141 ), #73, .T. ) ;
#231 = ORIENTED_EDGE ( 'NONE', *, *, #54, .F. ) ;
#232 = AXIS2_PLACEMENT_3D ( 'NONE', #25, #139, #243 ) ;
#233 = CIRCLE ( 'NONE', #116, 1.500000000000000222 ) ;
#234 = EDGE_LOOP ( 'NONE', ( #145, #231 ) ) ;
#235 = DIRECTION ( 'NONE',  ( 0.000000000000000000, 0.000000000000000000, 1.000000000000000000 ) ) ;
#236 = ORIENTED_EDGE ( 'NONE', *, *, #197, .T. ) ;
#237 = DIRECTION ( 'NONE',  ( 1.000000000000000000, 0.000000000000000000, -0.000000000000000000 ) ) ;
#238 = FACE_OUTER_BOUND ( 'NONE', #189, .T. ) ;
#239 = DIRECTION ( 'NONE',  ( 0.000000000000000000, -1.000000000000000000, 0.000000000000000000 ) ) ;
#240 = DIRECTION ( 'NONE',  ( -0.000000000000000000, -0.000000000000000000, -1.000000000000000000 ) ) ;
#241 = CIRCLE ( 'NONE', #187, 0.7500000000000001110 ) ;
#242 = ORGANIZATION ( 'NEURÈENÝ', 'NEURÈENÝ', '' ) ;
#243 = DIRECTION ( 'NONE',  ( -1.000000000000000000, 0.000000000000000000, 0.000000000000000000 ) ) ;
#244 = ORIENTED_EDGE ( 'NONE', *, *, #97, .F. ) ;
#245 =( LENGTH_UNIT ( ) NAMED_UNIT ( * ) SI_UNIT ( .MILLI., .METRE. ) );
#246 = EDGE_CURVE ( 'NONE', #142, #130, #81, .T. ) ;
#247 = CYLINDRICAL_SURFACE ( 'NONE', #161, 0.7500000000000001110 ) ;
#248 = ORIENTED_EDGE ( 'NONE', *, *, #39, .T. ) ;
#249 = APPROVAL_PERSON_ORGANIZATION ( #85, #134, #225 ) ;
#250 = CC_DESIGN_PERSON_AND_ORGANIZATION_ASSIGNMENT ( #149, #167, ( #294 ) ) ;
#251 = DATE_TIME_ROLE ( 'classification_date' ) ;
#252 = EDGE_LOOP ( 'NONE', ( #248, #2 ) ) ;
#253 = PERSON_AND_ORGANIZATION_ROLE ( 'creator' ) ;
#254 = APPROVAL ( #146, 'NEURÈENÝ' ) ;
#255 = ADVANCED_FACE ( 'NONE', ( #22 ), #256, .F. ) ;
#256 = TOROIDAL_SURFACE ( 'NONE', #289, 0.9500000000000000666, 0.2000000000000000111 ) ;
#257 = CARTESIAN_POINT ( 'NONE',  ( 1.500000000000000222, 1.836970198721030181E-16, 1.500000000000000000 ) ) ;
#258 = DIRECTION ( 'NONE',  ( 1.224646799147353207E-16, 1.000000000000000000, -0.000000000000000000 ) ) ;
#259 = CARTESIAN_POINT ( 'NONE',  ( 0.9500000000000000666, 0.000000000000000000, 1.700000000000007061 ) ) ;
#260 = EDGE_LOOP ( 'NONE', ( #55, #100 ) ) ;
#261 = DIRECTION ( 'NONE',  ( 1.000000000000000000, 0.000000000000000000, 0.000000000000000000 ) ) ;
#262 = EDGE_LOOP ( 'NONE', ( #244, #4, #199, #40 ) ) ;
#263 = FACE_OUTER_BOUND ( 'NONE', #234, .T. ) ;
#264 = EDGE_CURVE ( 'NONE', #168, #142, #224, .T. ) ;
#265 = VERTEX_POINT ( 'NONE', #143 ) ;
#266 = DIRECTION ( 'NONE',  ( 1.000000000000000000, 0.000000000000000000, 0.000000000000000000 ) ) ;
#267 = CARTESIAN_POINT ( 'NONE',  ( 0.000000000000000000, 0.000000000000000000, 1.500000000000000000 ) ) ;
#268 = COORDINATED_UNIVERSAL_TIME_OFFSET ( 1, 0, .AHEAD. ) ;
#269 =( GEOMETRIC_REPRESENTATION_CONTEXT ( 3 ) GLOBAL_UNCERTAINTY_ASSIGNED_CONTEXT ( ( #180 ) ) GLOBAL_UNIT_ASSIGNED_CONTEXT ( ( #245, #27, #83 ) ) REPRESENTATION_CONTEXT ( 'NONE', 'WORKASPACE' ) );
#270 = CALENDAR_DATE ( 2022, 7, 7 ) ;
#271 = COORDINATED_UNIVERSAL_TIME_OFFSET ( 1, 0, .AHEAD. ) ;
#272 = DATE_AND_TIME ( #30, #277 ) ;
#273 = DIRECTION ( 'NONE',  ( -0.000000000000000000, -0.000000000000000000, -1.000000000000000000 ) ) ;
#274 = PRODUCT ( '0060', '0060', '', ( #292 ) ) ;
#275 = AXIS2_PLACEMENT_3D ( 'NONE', #99, #273, #154 ) ;
#276 = EDGE_CURVE ( 'NONE', #265, #52, #155, .T. ) ;
#277 = LOCAL_TIME ( 12, 38, 35.00000000000000000, #59 ) ;
#278 = ORIENTED_EDGE ( 'NONE', *, *, #44, .T. ) ;
#279 = CYLINDRICAL_SURFACE ( 'NONE', #87, 1.500000000000000222 ) ;
#280 = AXIS2_PLACEMENT_3D ( 'NONE', #210, #133, #74 ) ;
#281 = CARTESIAN_POINT ( 'NONE',  ( 0.000000000000000000, 0.000000000000000000, 1.500000000000000000 ) ) ;
#282 = DIRECTION ( 'NONE',  ( 0.000000000000000000, 0.000000000000000000, 1.000000000000000000 ) ) ;
#283 = DIRECTION ( 'NONE',  ( 0.000000000000000000, 0.000000000000000000, 1.000000000000000000 ) ) ;
#284 = DIRECTION ( 'NONE',  ( -1.000000000000000000, 1.224646799147353207E-16, 0.000000000000000000 ) ) ;
#285 = ADVANCED_FACE ( 'NONE', ( #288 ), #63, .T. ) ;
#286 = FACE_OUTER_BOUND ( 'NONE', #222, .T. ) ;
#287 = CARTESIAN_POINT ( 'NONE',  ( -0.7500000000000001110, 0.000000000000000000, 1.700000000000007061 ) ) ;
#288 = FACE_OUTER_BOUND ( 'NONE', #31, .T. ) ;
#289 = AXIS2_PLACEMENT_3D ( 'NONE', #191, #235, #18 ) ;
#290 = PRODUCT_RELATED_PRODUCT_CATEGORY ( 'detail', '', ( #274 ) ) ;
#291 = ORIENTED_EDGE ( 'NONE', *, *, #276, .T. ) ;
#292 = MECHANICAL_CONTEXT ( 'NONE', #196, 'mechanical' ) ;
#293 = ORIENTED_EDGE ( 'NONE', *, *, #304, .T. ) ;
#294 = PRODUCT_DEFINITION_FORMATION_WITH_SPECIFIED_SOURCE ( 'LIBOVOLNÝ', '', #274, .NOT_KNOWN. ) ;
#295 = EDGE_CURVE ( 'NONE', #111, #130, #150, .T. ) ;
#296 = PERSON_AND_ORGANIZATION_ROLE ( 'design_supplier' ) ;
#297 = DATE_TIME_ROLE ( 'creation_date' ) ;
#298 = APPROVAL_DATE_TIME ( #10, #213 ) ;
#299 = PERSON_AND_ORGANIZATION_ROLE ( 'classification_officer' ) ;
#300 = CC_DESIGN_PERSON_AND_ORGANIZATION_ASSIGNMENT ( #84, #296, ( #294 ) ) ;
#301 = VECTOR ( 'NONE', #72, 1000.000000000000000 ) ;
#302 = SECURITY_CLASSIFICATION ( '', '', #7 ) ;
#303 = CARTESIAN_POINT ( 'NONE',  ( 0.000000000000000000, 0.000000000000000000, 1.700000000000007061 ) ) ;
#304 = EDGE_CURVE ( 'NONE', #52, #265, #125, .T. ) ;
#305 = ORIENTED_EDGE ( 'NONE', *, *, #66, .T. ) ;
#306 = CARTESIAN_POINT ( 'NONE',  ( 0.7500000000000001110, 9.184850993605150903E-17, 161.5000000000000000 ) ) ;
#307 = DIRECTION ( 'NONE',  ( -0.000000000000000000, -0.000000000000000000, -1.000000000000000000 ) ) ;
ENDSEC;
END-ISO-10303-21;
