ISO-10303-21;
HEADER;
FILE_DESCRIPTION (( 'STEP AP203' ),
    '1' );
FILE_NAME ('3390.STEP',
    '2023-02-12T10:44:09',
    ( '' ),
    ( '' ),
    'SwSTEP 2.0',
    'SolidWorks 2019',
    '' );
FILE_SCHEMA (( 'CONFIG_CONTROL_DESIGN' ));
ENDSEC;

DATA;
#1 = AXIS2_PLACEMENT_3D ( 'NONE', #206, #114, #186 ) ;
#2 = APPLICATION_PROTOCOL_DEFINITION ( 'international standard', 'config_control_design', 1994, #51 ) ;
#3 = DIRECTION ( 'NONE',  ( -0.000000000000000000, -0.000000000000000000, -1.000000000000000000 ) ) ;
#4 = ADVANCED_FACE ( 'NONE', ( #151 ), #207, .F. ) ;
#5 = COORDINATED_UNIVERSAL_TIME_OFFSET ( 1, 0, .AHEAD. ) ;
#6 = ORIENTED_EDGE ( 'NONE', *, *, #7, .F. ) ;
#7 = EDGE_CURVE ( 'NONE', #179, #61, #164, .T. ) ;
#8 = PERSON_AND_ORGANIZATION ( #74, #129 ) ;
#9 = EDGE_LOOP ( 'NONE', ( #6, #112, #123, #169 ) ) ;
#10 = ORIENTED_EDGE ( 'NONE', *, *, #215, .T. ) ;
#11 = EDGE_LOOP ( 'NONE', ( #184, #243 ) ) ;
#12 = DIRECTION ( 'NONE',  ( -1.000000000000000000, 0.000000000000000000, 0.000000000000000000 ) ) ;
#13 = LOCAL_TIME ( 11, 44, 9.000000000000000000, #5 ) ;
#14 = CYLINDRICAL_SURFACE ( 'NONE', #253, 8.000000000000000000 ) ;
#15 = CIRCLE ( 'NONE', #84, 11.00000000000000000 ) ;
#16 = LINE ( 'NONE', #233, #181 ) ;
#17 = DIRECTION ( 'NONE',  ( 1.000000000000000000, 0.000000000000000000, 0.000000000000000000 ) ) ;
#18 = VERTEX_POINT ( 'NONE', #228 ) ;
#19 = CARTESIAN_POINT ( 'NONE',  ( -8.000000000000000000, 0.000000000000000000, 7.000000000000000000 ) ) ;
#20 =( GEOMETRIC_REPRESENTATION_CONTEXT ( 3 ) GLOBAL_UNCERTAINTY_ASSIGNED_CONTEXT ( ( #146 ) ) GLOBAL_UNIT_ASSIGNED_CONTEXT ( ( #97, #158, #144 ) ) REPRESENTATION_CONTEXT ( 'NONE', 'WORKASPACE' ) );
#21 = PERSON_AND_ORGANIZATION_ROLE ( 'design_owner' ) ;
#22 = VERTEX_POINT ( 'NONE', #241 ) ;
#23 = EDGE_CURVE ( 'NONE', #22, #89, #24, .T. ) ;
#24 = LINE ( 'NONE', #72, #96 ) ;
#25 = FACE_OUTER_BOUND ( 'NONE', #11, .T. ) ;
#26 = COORDINATED_UNIVERSAL_TIME_OFFSET ( 1, 0, .AHEAD. ) ;
#27 = ORIENTED_EDGE ( 'NONE', *, *, #215, .F. ) ;
#28 = APPROVAL ( #242, 'NEURÈENÝ' ) ;
#29 = EDGE_CURVE ( 'NONE', #239, #22, #41, .T. ) ;
#30 = DIRECTION ( 'NONE',  ( 1.000000000000000000, 0.000000000000000000, 0.000000000000000000 ) ) ;
#31 = ORIENTED_EDGE ( 'NONE', *, *, #23, .T. ) ;
#32 = DIRECTION ( 'NONE',  ( -0.000000000000000000, -0.000000000000000000, -1.000000000000000000 ) ) ;
#33 = AXIS2_PLACEMENT_3D ( 'NONE', #231, #116, #37 ) ;
#34 = PLANE ( 'NONE',  #108 ) ;
#35 = CC_DESIGN_PERSON_AND_ORGANIZATION_ASSIGNMENT ( #45, #21, ( #38 ) ) ;
#36 = ADVANCED_FACE ( 'NONE', ( #171, #25 ), #147, .T. ) ;
#37 = DIRECTION ( 'NONE',  ( -1.000000000000000000, 0.000000000000000000, 0.000000000000000000 ) ) ;
#38 = PRODUCT ( '3390', '3390', '', ( #65 ) ) ;
#39 = DIRECTION ( 'NONE',  ( 1.000000000000000000, 0.000000000000000000, 0.000000000000000000 ) ) ;
#40 = ORIENTED_EDGE ( 'NONE', *, *, #234, .F. ) ;
#41 = CIRCLE ( 'NONE', #192, 11.00000000000000000 ) ;
#42 = CC_DESIGN_APPROVAL ( #28, ( #173 ) ) ;
#43 = LINE ( 'NONE', #203, #154 ) ;
#44 = CARTESIAN_POINT ( 'NONE',  ( 0.000000000000000000, 0.000000000000000000, 0.000000000000000000 ) ) ;
#45 = PERSON_AND_ORGANIZATION ( #74, #129 ) ;
#46 = ADVANCED_FACE ( 'NONE', ( #127 ), #145, .T. ) ;
#47 = EDGE_CURVE ( 'NONE', #61, #182, #43, .T. ) ;
#48 = DIRECTION ( 'NONE',  ( 0.000000000000000000, 0.000000000000000000, 1.000000000000000000 ) ) ;
#49 = CARTESIAN_POINT ( 'NONE',  ( 0.000000000000000000, 0.000000000000000000, 200.0000000000000000 ) ) ;
#50 = AXIS2_PLACEMENT_3D ( 'NONE', #229, #167, #92 ) ;
#51 = APPLICATION_CONTEXT ( 'configuration controlled 3d designs of mechanical parts and assemblies' ) ;
#52 = CARTESIAN_POINT ( 'NONE',  ( 0.000000000000000000, 0.000000000000000000, 7.000000000000000000 ) ) ;
#53 = COORDINATED_UNIVERSAL_TIME_OFFSET ( 1, 0, .AHEAD. ) ;
#54 = CLOSED_SHELL ( 'NONE', ( #82, #220, #240, #36, #4, #46, #135 ) ) ;
#55 = AXIS2_PLACEMENT_3D ( 'NONE', #174, #214, #139 ) ;
#56 = ADVANCED_BREP_SHAPE_REPRESENTATION ( '3390', ( #81, #80 ), #20 ) ;
#57 = LOCAL_TIME ( 11, 44, 9.000000000000000000, #26 ) ;
#58 = DIRECTION ( 'NONE',  ( -1.000000000000000000, 0.000000000000000000, 0.000000000000000000 ) ) ;
#59 = EDGE_LOOP ( 'NONE', ( #40, #27, #166, #132 ) ) ;
#60 = FACE_OUTER_BOUND ( 'NONE', #86, .T. ) ;
#61 = VERTEX_POINT ( 'NONE', #87 ) ;
#62 = APPLICATION_PROTOCOL_DEFINITION ( 'international standard', 'config_control_design', 1994, #177 ) ;
#63 = ORIENTED_EDGE ( 'NONE', *, *, #7, .T. ) ;
#64 = EDGE_CURVE ( 'NONE', #182, #18, #216, .T. ) ;
#65 = MECHANICAL_CONTEXT ( 'NONE', #51, 'mechanical' ) ;
#66 = DIRECTION ( 'NONE',  ( 0.000000000000000000, 0.000000000000000000, 1.000000000000000000 ) ) ;
#67 = DATE_TIME_ROLE ( 'creation_date' ) ;
#68 = APPROVAL_PERSON_ORGANIZATION ( #210, #118, #77 ) ;
#69 = CARTESIAN_POINT ( 'NONE',  ( 0.000000000000000000, 0.000000000000000000, 200.0000000000000000 ) ) ;
#70 = ORIENTED_EDGE ( 'NONE', *, *, #79, .F. ) ;
#71 = CC_DESIGN_PERSON_AND_ORGANIZATION_ASSIGNMENT ( #246, #73, ( #199 ) ) ;
#72 = CARTESIAN_POINT ( 'NONE',  ( -11.00000000000000000, 0.000000000000000000, 7.000000000000000000 ) ) ;
#73 = PERSON_AND_ORGANIZATION_ROLE ( 'classification_officer' ) ;
#74 = PERSON ( 'NEURÈENÝ', 'NEURÈENÝ', 'NEURÈENÝ', ('NEURÈENÝ'), ('NEURÈENÝ'), ('NEURÈENÝ') ) ;
#75 = LINE ( 'NONE', #235, #90 ) ;
#76 = CIRCLE ( 'NONE', #213, 8.000000000000000000 ) ;
#77 = APPROVAL_ROLE ( '' ) ;
#78 = CARTESIAN_POINT ( 'NONE',  ( 0.000000000000000000, 0.000000000000000000, 200.0000000000000000 ) ) ;
#79 = EDGE_CURVE ( 'NONE', #89, #196, #15, .T. ) ;
#80 = AXIS2_PLACEMENT_3D ( 'NONE', #85, #183, #237 ) ;
#81 = MANIFOLD_SOLID_BREP ( 'Pøidat vysunutím3', #54 ) ;
#82 = ADVANCED_FACE ( 'NONE', ( #252 ), #14, .T. ) ;
#83 = EDGE_LOOP ( 'NONE', ( #70, #93 ) ) ;
#84 = AXIS2_PLACEMENT_3D ( 'NONE', #44, #130, #190 ) ;
#85 = CARTESIAN_POINT ( 'NONE',  ( 0.000000000000000000, 0.000000000000000000, 0.000000000000000000 ) ) ;
#86 = EDGE_LOOP ( 'NONE', ( #10, #63 ) ) ;
#87 = CARTESIAN_POINT ( 'NONE',  ( -8.000000000000000000, 0.000000000000000000, 200.0000000000000000 ) ) ;
#88 = DATE_AND_TIME ( #125, #13 ) ;
#89 = VERTEX_POINT ( 'NONE', #236 ) ;
#90 = VECTOR ( 'NONE', #138, 1000.000000000000000 ) ;
#91 = DATE_TIME_ROLE ( 'classification_date' ) ;
#92 = DIRECTION ( 'NONE',  ( 1.000000000000000000, 0.000000000000000000, -0.000000000000000000 ) ) ;
#93 = ORIENTED_EDGE ( 'NONE', *, *, #175, .F. ) ;
#94 = DATE_AND_TIME ( #113, #57 ) ;
#95 = CARTESIAN_POINT ( 'NONE',  ( 0.000000000000000000, 0.000000000000000000, 7.000000000000000000 ) ) ;
#96 = VECTOR ( 'NONE', #115, 1000.000000000000000 ) ;
#97 =( LENGTH_UNIT ( ) NAMED_UNIT ( * ) SI_UNIT ( .MILLI., .METRE. ) );
#98 = PRODUCT_RELATED_PRODUCT_CATEGORY ( 'detail', '', ( #38 ) ) ;
#99 = AXIS2_PLACEMENT_3D ( 'NONE', #165, #66, #226 ) ;
#100 = CARTESIAN_POINT ( 'NONE',  ( 0.000000000000000000, 0.000000000000000000, 7.000000000000000000 ) ) ;
#101 = EDGE_LOOP ( 'NONE', ( #126, #200 ) ) ;
#102 = CYLINDRICAL_SURFACE ( 'NONE', #143, 11.00000000000000000 ) ;
#103 = PRODUCT_DEFINITION_FORMATION_WITH_SPECIFIED_SOURCE ( 'LIBOVOLNÝ', '', #38, .NOT_KNOWN. ) ;
#104 = FACE_OUTER_BOUND ( 'NONE', #150, .T. ) ;
#105 = COORDINATED_UNIVERSAL_TIME_OFFSET ( 1, 0, .AHEAD. ) ;
#106 = PERSON_AND_ORGANIZATION_ROLE ( 'creator' ) ;
#107 = ORIENTED_EDGE ( 'NONE', *, *, #23, .F. ) ;
#108 = AXIS2_PLACEMENT_3D ( 'NONE', #78, #159, #120 ) ;
#109 = CC_DESIGN_APPROVAL ( #198, ( #103 ) ) ;
#110 = DIRECTION ( 'NONE',  ( -0.000000000000000000, -0.000000000000000000, -1.000000000000000000 ) ) ;
#111 = APPROVAL_ROLE ( '' ) ;
#112 = ORIENTED_EDGE ( 'NONE', *, *, #234, .T. ) ;
#113 = CALENDAR_DATE ( 2023, 12, 2 ) ;
#114 = DIRECTION ( 'NONE',  ( 0.000000000000000000, 0.000000000000000000, 1.000000000000000000 ) ) ;
#115 = DIRECTION ( 'NONE',  ( -0.000000000000000000, -0.000000000000000000, -1.000000000000000000 ) ) ;
#116 = DIRECTION ( 'NONE',  ( -0.000000000000000000, -0.000000000000000000, -1.000000000000000000 ) ) ;
#117 = SHAPE_DEFINITION_REPRESENTATION ( #221, #56 ) ;
#118 = APPROVAL ( #250, 'NEURÈENÝ' ) ;
#119 = AXIS2_PLACEMENT_3D ( 'NONE', #254, #248, #136 ) ;
#120 = DIRECTION ( 'NONE',  ( 1.000000000000000000, 0.000000000000000000, -0.000000000000000000 ) ) ;
#121 = ORIENTED_EDGE ( 'NONE', *, *, #161, .T. ) ;
#122 = DIRECTION ( 'NONE',  ( 0.000000000000000000, 0.000000000000000000, 1.000000000000000000 ) ) ;
#123 = ORIENTED_EDGE ( 'NONE', *, *, #238, .T. ) ;
#124 = ORIENTED_EDGE ( 'NONE', *, *, #79, .T. ) ;
#125 = CALENDAR_DATE ( 2023, 12, 2 ) ;
#126 = ORIENTED_EDGE ( 'NONE', *, *, #64, .F. ) ;
#127 = FACE_OUTER_BOUND ( 'NONE', #59, .T. ) ;
#128 = AXIS2_PLACEMENT_3D ( 'NONE', #69, #110, #224 ) ;
#129 = ORGANIZATION ( 'NEURÈENÝ', 'NEURÈENÝ', '' ) ;
#130 = DIRECTION ( 'NONE',  ( 0.000000000000000000, 0.000000000000000000, 1.000000000000000000 ) ) ;
#131 = PERSON_AND_ORGANIZATION ( #74, #129 ) ;
#132 = ORIENTED_EDGE ( 'NONE', *, *, #64, .T. ) ;
#133 = ORIENTED_EDGE ( 'NONE', *, *, #161, .F. ) ;
#134 = CARTESIAN_POINT ( 'NONE',  ( 8.000000000000000000, 9.797174393178825657E-16, 200.0000000000000000 ) ) ;
#135 = ADVANCED_FACE ( 'NONE', ( #60 ), #34, .T. ) ;
#136 = DIRECTION ( 'NONE',  ( 1.000000000000000000, 0.000000000000000000, 0.000000000000000000 ) ) ;
#137 = CC_DESIGN_APPROVAL ( #118, ( #199 ) ) ;
#138 = DIRECTION ( 'NONE',  ( -0.000000000000000000, -0.000000000000000000, -1.000000000000000000 ) ) ;
#139 = DIRECTION ( 'NONE',  ( 1.000000000000000000, 0.000000000000000000, 0.000000000000000000 ) ) ;
#140 = CC_DESIGN_DATE_AND_TIME_ASSIGNMENT ( #155, #91, ( #199 ) ) ;
#141 = ORIENTED_EDGE ( 'NONE', *, *, #194, .F. ) ;
#142 = CIRCLE ( 'NONE', #193, 11.00000000000000000 ) ;
#143 = AXIS2_PLACEMENT_3D ( 'NONE', #52, #176, #12 ) ;
#144 =( NAMED_UNIT ( * ) SI_UNIT ( $, .STERADIAN. ) SOLID_ANGLE_UNIT ( ) );
#145 = CYLINDRICAL_SURFACE ( 'NONE', #128, 8.000000000000000000 ) ;
#146 = UNCERTAINTY_MEASURE_WITH_UNIT (LENGTH_MEASURE( 1.000000000000000082E-05 ), #97, 'distance_accuracy_value', 'NONE');
#147 = PLANE ( 'NONE',  #1 ) ;
#148 = PERSON_AND_ORGANIZATION ( #74, #129 ) ;
#149 = LOCAL_TIME ( 11, 44, 9.000000000000000000, #105 ) ;
#150 = EDGE_LOOP ( 'NONE', ( #133, #141, #31, #124 ) ) ;
#151 = FACE_OUTER_BOUND ( 'NONE', #83, .T. ) ;
#152 = PERSON_AND_ORGANIZATION ( #74, #129 ) ;
#153 = ORIENTED_EDGE ( 'NONE', *, *, #29, .F. ) ;
#154 = VECTOR ( 'NONE', #3, 1000.000000000000000 ) ;
#155 = DATE_AND_TIME ( #172, #255 ) ;
#156 = CC_DESIGN_SECURITY_CLASSIFICATION ( #199, ( #103 ) ) ;
#157 = SECURITY_CLASSIFICATION_LEVEL ( 'unclassified' ) ;
#158 =( NAMED_UNIT ( * ) PLANE_ANGLE_UNIT ( ) SI_UNIT ( $, .RADIAN. ) );
#159 = DIRECTION ( 'NONE',  ( 0.000000000000000000, 0.000000000000000000, 1.000000000000000000 ) ) ;
#160 = CC_DESIGN_PERSON_AND_ORGANIZATION_ASSIGNMENT ( #152, #187, ( #103 ) ) ;
#161 = EDGE_CURVE ( 'NONE', #239, #196, #75, .T. ) ;
#162 = CARTESIAN_POINT ( 'NONE',  ( 0.000000000000000000, 0.000000000000000000, 200.0000000000000000 ) ) ;
#163 = DATE_AND_TIME ( #202, #149 ) ;
#164 = CIRCLE ( 'NONE', #185, 8.000000000000000000 ) ;
#165 = CARTESIAN_POINT ( 'NONE',  ( 0.000000000000000000, 0.000000000000000000, 7.000000000000000000 ) ) ;
#166 = ORIENTED_EDGE ( 'NONE', *, *, #47, .T. ) ;
#167 = DIRECTION ( 'NONE',  ( 0.000000000000000000, 0.000000000000000000, 1.000000000000000000 ) ) ;
#168 = PERSON_AND_ORGANIZATION_ROLE ( 'creator' ) ;
#169 = ORIENTED_EDGE ( 'NONE', *, *, #47, .F. ) ;
#170 = APPROVAL_DATE_TIME ( #94, #198 ) ;
#171 = FACE_BOUND ( 'NONE', #101, .T. ) ;
#172 = CALENDAR_DATE ( 2023, 12, 2 ) ;
#173 = PRODUCT_DEFINITION ( 'NEZNÁMÝ', '', #103, #223 ) ;
#174 = CARTESIAN_POINT ( 'NONE',  ( 0.000000000000000000, 0.000000000000000000, 200.0000000000000000 ) ) ;
#175 = EDGE_CURVE ( 'NONE', #196, #89, #142, .T. ) ;
#176 = DIRECTION ( 'NONE',  ( -0.000000000000000000, -0.000000000000000000, -1.000000000000000000 ) ) ;
#177 = APPLICATION_CONTEXT ( 'configuration controlled 3d designs of mechanical parts and assemblies' ) ;
#178 = ORIENTED_EDGE ( 'NONE', *, *, #175, .T. ) ;
#179 = VERTEX_POINT ( 'NONE', #134 ) ;
#180 = CIRCLE ( 'NONE', #55, 8.000000000000000000 ) ;
#181 = VECTOR ( 'NONE', #32, 1000.000000000000000 ) ;
#182 = VERTEX_POINT ( 'NONE', #19 ) ;
#183 = DIRECTION ( 'NONE',  ( 0.000000000000000000, 0.000000000000000000, 1.000000000000000000 ) ) ;
#184 = ORIENTED_EDGE ( 'NONE', *, *, #194, .T. ) ;
#185 = AXIS2_PLACEMENT_3D ( 'NONE', #49, #48, #209 ) ;
#186 = DIRECTION ( 'NONE',  ( 1.000000000000000000, 0.000000000000000000, -0.000000000000000000 ) ) ;
#187 = PERSON_AND_ORGANIZATION_ROLE ( 'design_supplier' ) ;
#188 = CARTESIAN_POINT ( 'NONE',  ( 11.00000000000000000, 1.347111479062088405E-15, 7.000000000000000000 ) ) ;
#189 = COORDINATED_UNIVERSAL_TIME_OFFSET ( 1, 0, .AHEAD. ) ;
#190 = DIRECTION ( 'NONE',  ( 1.000000000000000000, 0.000000000000000000, 0.000000000000000000 ) ) ;
#191 = FACE_OUTER_BOUND ( 'NONE', #245, .T. ) ;
#192 = AXIS2_PLACEMENT_3D ( 'NONE', #95, #247, #30 ) ;
#193 = AXIS2_PLACEMENT_3D ( 'NONE', #197, #122, #17 ) ;
#194 = EDGE_CURVE ( 'NONE', #22, #239, #230, .T. ) ;
#195 = DIRECTION ( 'NONE',  ( -0.000000000000000000, -0.000000000000000000, -1.000000000000000000 ) ) ;
#196 = VERTEX_POINT ( 'NONE', #219 ) ;
#197 = CARTESIAN_POINT ( 'NONE',  ( 0.000000000000000000, 0.000000000000000000, 0.000000000000000000 ) ) ;
#198 = APPROVAL ( #227, 'NEURÈENÝ' ) ;
#199 = SECURITY_CLASSIFICATION ( '', '', #157 ) ;
#200 = ORIENTED_EDGE ( 'NONE', *, *, #238, .F. ) ;
#201 = APPROVAL_DATE_TIME ( #88, #28 ) ;
#202 = CALENDAR_DATE ( 2023, 12, 2 ) ;
#203 = CARTESIAN_POINT ( 'NONE',  ( -8.000000000000000000, 0.000000000000000000, 200.0000000000000000 ) ) ;
#204 = PERSON_AND_ORGANIZATION ( #74, #129 ) ;
#205 = APPROVAL_ROLE ( '' ) ;
#206 = CARTESIAN_POINT ( 'NONE',  ( 0.000000000000000000, 0.000000000000000000, 7.000000000000000000 ) ) ;
#207 = PLANE ( 'NONE',  #50 ) ;
#208 = LOCAL_TIME ( 11, 44, 9.000000000000000000, #189 ) ;
#209 = DIRECTION ( 'NONE',  ( 1.000000000000000000, 0.000000000000000000, 0.000000000000000000 ) ) ;
#210 = PERSON_AND_ORGANIZATION ( #74, #129 ) ;
#211 = CYLINDRICAL_SURFACE ( 'NONE', #33, 11.00000000000000000 ) ;
#212 = APPROVAL_DATE_TIME ( #232, #118 ) ;
#213 = AXIS2_PLACEMENT_3D ( 'NONE', #100, #222, #39 ) ;
#214 = DIRECTION ( 'NONE',  ( 0.000000000000000000, 0.000000000000000000, 1.000000000000000000 ) ) ;
#215 = EDGE_CURVE ( 'NONE', #61, #179, #180, .T. ) ;
#216 = CIRCLE ( 'NONE', #99, 8.000000000000000000 ) ;
#217 = CC_DESIGN_DATE_AND_TIME_ASSIGNMENT ( #163, #67, ( #173 ) ) ;
#218 = APPROVAL_PERSON_ORGANIZATION ( #148, #198, #205 ) ;
#219 = CARTESIAN_POINT ( 'NONE',  ( 11.00000000000000000, 1.347111479062088405E-15, 0.000000000000000000 ) ) ;
#220 = ADVANCED_FACE ( 'NONE', ( #191 ), #211, .T. ) ;
#221 = PRODUCT_DEFINITION_SHAPE ( 'NONE', 'NONE',  #173 ) ;
#222 = DIRECTION ( 'NONE',  ( 0.000000000000000000, 0.000000000000000000, 1.000000000000000000 ) ) ;
#223 = DESIGN_CONTEXT ( 'detailed design', #177, 'design' ) ;
#224 = DIRECTION ( 'NONE',  ( -1.000000000000000000, 0.000000000000000000, 0.000000000000000000 ) ) ;
#225 = CC_DESIGN_PERSON_AND_ORGANIZATION_ASSIGNMENT ( #8, #168, ( #103 ) ) ;
#226 = DIRECTION ( 'NONE',  ( 1.000000000000000000, 0.000000000000000000, 0.000000000000000000 ) ) ;
#227 = APPROVAL_STATUS ( 'not_yet_approved' ) ;
#228 = CARTESIAN_POINT ( 'NONE',  ( 8.000000000000000000, 9.797174393178825657E-16, 7.000000000000000000 ) ) ;
#229 = CARTESIAN_POINT ( 'NONE',  ( 0.000000000000000000, 0.000000000000000000, 0.000000000000000000 ) ) ;
#230 = CIRCLE ( 'NONE', #119, 11.00000000000000000 ) ;
#231 = CARTESIAN_POINT ( 'NONE',  ( 0.000000000000000000, 0.000000000000000000, 7.000000000000000000 ) ) ;
#232 = DATE_AND_TIME ( #251, #208 ) ;
#233 = CARTESIAN_POINT ( 'NONE',  ( 8.000000000000000000, 9.797174393178825657E-16, 200.0000000000000000 ) ) ;
#234 = EDGE_CURVE ( 'NONE', #179, #18, #16, .T. ) ;
#235 = CARTESIAN_POINT ( 'NONE',  ( 11.00000000000000000, 1.347111479062088405E-15, 7.000000000000000000 ) ) ;
#236 = CARTESIAN_POINT ( 'NONE',  ( -11.00000000000000000, 0.000000000000000000, 0.000000000000000000 ) ) ;
#237 = DIRECTION ( 'NONE',  ( 1.000000000000000000, 0.000000000000000000, 0.000000000000000000 ) ) ;
#238 = EDGE_CURVE ( 'NONE', #18, #182, #76, .T. ) ;
#239 = VERTEX_POINT ( 'NONE', #188 ) ;
#240 = ADVANCED_FACE ( 'NONE', ( #104 ), #102, .T. ) ;
#241 = CARTESIAN_POINT ( 'NONE',  ( -11.00000000000000000, 0.000000000000000000, 7.000000000000000000 ) ) ;
#242 = APPROVAL_STATUS ( 'not_yet_approved' ) ;
#243 = ORIENTED_EDGE ( 'NONE', *, *, #29, .T. ) ;
#244 = CC_DESIGN_PERSON_AND_ORGANIZATION_ASSIGNMENT ( #131, #106, ( #173 ) ) ;
#245 = EDGE_LOOP ( 'NONE', ( #153, #121, #178, #107 ) ) ;
#246 = PERSON_AND_ORGANIZATION ( #74, #129 ) ;
#247 = DIRECTION ( 'NONE',  ( 0.000000000000000000, 0.000000000000000000, 1.000000000000000000 ) ) ;
#248 = DIRECTION ( 'NONE',  ( 0.000000000000000000, 0.000000000000000000, 1.000000000000000000 ) ) ;
#249 = APPROVAL_PERSON_ORGANIZATION ( #204, #28, #111 ) ;
#250 = APPROVAL_STATUS ( 'not_yet_approved' ) ;
#251 = CALENDAR_DATE ( 2023, 12, 2 ) ;
#252 = FACE_OUTER_BOUND ( 'NONE', #9, .T. ) ;
#253 = AXIS2_PLACEMENT_3D ( 'NONE', #162, #195, #58 ) ;
#254 = CARTESIAN_POINT ( 'NONE',  ( 0.000000000000000000, 0.000000000000000000, 7.000000000000000000 ) ) ;
#255 = LOCAL_TIME ( 11, 44, 9.000000000000000000, #53 ) ;
ENDSEC;
END-ISO-10303-21;
