ISO-10303-21;
HEADER;
FILE_DESCRIPTION (( 'STEP AP203' ),
    '1' );
FILE_NAME ('d375.STEP',
    '2022-07-07T10:26:40',
    ( '' ),
    ( '' ),
    'SwSTEP 2.0',
    'SolidWorks 2019',
    '' );
FILE_SCHEMA (( 'CONFIG_CONTROL_DESIGN' ));
ENDSEC;

DATA;
#1 = ADVANCED_FACE ( 'NONE', ( #161 ), #178, .F. ) ;
#2 = DIRECTION ( 'NONE',  ( 0.000000000000000000, 0.000000000000000000, 1.000000000000000000 ) ) ;
#3 = CARTESIAN_POINT ( 'NONE',  ( 4.000000000000000000, 4.898587196589412829E-16, 3.000000000000000000 ) ) ;
#4 = VECTOR ( 'NONE', #98, 1000.000000000000000 ) ;
#5 = CYLINDRICAL_SURFACE ( 'NONE', #290, 4.000000000000000000 ) ;
#6 = CARTESIAN_POINT ( 'NONE',  ( 0.000000000000000000, 0.000000000000000000, 3.000000000000000000 ) ) ;
#7 = PLANE ( 'NONE',  #37 ) ;
#8 = CC_DESIGN_DATE_AND_TIME_ASSIGNMENT ( #224, #201, ( #194 ) ) ;
#9 = AXIS2_PLACEMENT_3D ( 'NONE', #101, #215, #292 ) ;
#10 = CC_DESIGN_SECURITY_CLASSIFICATION ( #194, ( #214 ) ) ;
#11 = DIRECTION ( 'NONE',  ( 1.224646799147353207E-16, 1.000000000000000000, -0.000000000000000000 ) ) ;
#12 = DIRECTION ( 'NONE',  ( 1.000000000000000000, 0.000000000000000000, 0.000000000000000000 ) ) ;
#13 = CALENDAR_DATE ( 2022, 7, 7 ) ;
#14 = AXIS2_PLACEMENT_3D ( 'NONE', #236, #241, #26 ) ;
#15 = PERSON_AND_ORGANIZATION ( #211, #153 ) ;
#16 = CALENDAR_DATE ( 2022, 7, 7 ) ;
#17 = PERSON_AND_ORGANIZATION_ROLE ( 'classification_officer' ) ;
#18 = VERTEX_POINT ( 'NONE', #306 ) ;
#19 = CIRCLE ( 'NONE', #259, 4.000000000000000000 ) ;
#20 = APPROVAL_DATE_TIME ( #95, #48 ) ;
#21 = VERTEX_POINT ( 'NONE', #160 ) ;
#22 = ORIENTED_EDGE ( 'NONE', *, *, #112, .F. ) ;
#23 = AXIS2_PLACEMENT_3D ( 'NONE', #189, #33, #124 ) ;
#24 = ORIENTED_EDGE ( 'NONE', *, *, #104, .T. ) ;
#25 = EDGE_CURVE ( 'NONE', #18, #91, #35, .T. ) ;
#26 = DIRECTION ( 'NONE',  ( 1.000000000000000000, 0.000000000000000000, 0.000000000000000000 ) ) ;
#27 = ORIENTED_EDGE ( 'NONE', *, *, #56, .F. ) ;
#28 = FACE_OUTER_BOUND ( 'NONE', #234, .T. ) ;
#29 = DIRECTION ( 'NONE',  ( -0.000000000000000000, -0.000000000000000000, -1.000000000000000000 ) ) ;
#30 = CYLINDRICAL_SURFACE ( 'NONE', #162, 2.000000000000000000 ) ;
#31 = ADVANCED_FACE ( 'NONE', ( #164 ), #188, .F. ) ;
#32 = CARTESIAN_POINT ( 'NONE',  ( 2.000000000000000000, 2.449293598294706414E-16, 103.0000000000000142 ) ) ;
#33 = DIRECTION ( 'NONE',  ( 0.000000000000000000, 0.000000000000000000, 1.000000000000000000 ) ) ;
#34 = PERSON_AND_ORGANIZATION_ROLE ( 'design_owner' ) ;
#35 = CIRCLE ( 'NONE', #206, 2.000000000000000000 ) ;
#36 = PERSON_AND_ORGANIZATION ( #211, #153 ) ;
#37 = AXIS2_PLACEMENT_3D ( 'NONE', #193, #296, #246 ) ;
#38 = DIRECTION ( 'NONE',  ( 0.000000000000000000, 0.000000000000000000, 1.000000000000000000 ) ) ;
#39 = ORIENTED_EDGE ( 'NONE', *, *, #140, .F. ) ;
#40 = COORDINATED_UNIVERSAL_TIME_OFFSET ( 1, 0, .AHEAD. ) ;
#41 = ORIENTED_EDGE ( 'NONE', *, *, #159, .F. ) ;
#42 = EDGE_LOOP ( 'NONE', ( #24, #151 ) ) ;
#43 = APPROVAL_PERSON_ORGANIZATION ( #126, #53, #255 ) ;
#44 = CC_DESIGN_PERSON_AND_ORGANIZATION_ASSIGNMENT ( #175, #64, ( #214 ) ) ;
#45 = DIRECTION ( 'NONE',  ( 1.000000000000000000, 0.000000000000000000, 0.000000000000000000 ) ) ;
#46 = CARTESIAN_POINT ( 'NONE',  ( 0.000000000000000000, 0.000000000000000000, 0.000000000000000000 ) ) ;
#47 = ORIENTED_EDGE ( 'NONE', *, *, #25, .T. ) ;
#48 = APPROVAL ( #150, 'NEURÈENÝ' ) ;
#49 = LINE ( 'NONE', #291, #143 ) ;
#50 = EDGE_CURVE ( 'NONE', #176, #280, #233, .T. ) ;
#51 = CARTESIAN_POINT ( 'NONE',  ( -2.200000000000000178, 2.694222958124177006E-16, 3.199999999999994404 ) ) ;
#52 = AXIS2_PLACEMENT_3D ( 'NONE', #165, #210, #183 ) ;
#53 = APPROVAL ( #107, 'NEURÈENÝ' ) ;
#54 = LOCAL_TIME ( 12, 26, 40.00000000000000000, #40 ) ;
#55 = DIRECTION ( 'NONE',  ( -1.000000000000000000, 0.000000000000000000, 0.000000000000000000 ) ) ;
#56 = EDGE_CURVE ( 'NONE', #208, #158, #49, .T. ) ;
#57 = FACE_BOUND ( 'NONE', #285, .T. ) ;
#58 = DIRECTION ( 'NONE',  ( -1.000000000000000000, 0.000000000000000000, 0.000000000000000000 ) ) ;
#59 = CC_DESIGN_PERSON_AND_ORGANIZATION_ASSIGNMENT ( #36, #132, ( #214 ) ) ;
#60 = AXIS2_PLACEMENT_3D ( 'NONE', #307, #283, #75 ) ;
#61 = DIRECTION ( 'NONE',  ( 1.000000000000000000, 0.000000000000000000, 0.000000000000000000 ) ) ;
#62 =( NAMED_UNIT ( * ) PLANE_ANGLE_UNIT ( ) SI_UNIT ( $, .RADIAN. ) );
#63 = ORIENTED_EDGE ( 'NONE', *, *, #104, .F. ) ;
#64 = PERSON_AND_ORGANIZATION_ROLE ( 'creator' ) ;
#65 = CC_DESIGN_PERSON_AND_ORGANIZATION_ASSIGNMENT ( #232, #17, ( #194 ) ) ;
#66 = APPROVAL_PERSON_ORGANIZATION ( #15, #48, #127 ) ;
#67 = APPROVAL_STATUS ( 'not_yet_approved' ) ;
#68 = VERTEX_POINT ( 'NONE', #186 ) ;
#69 = DIRECTION ( 'NONE',  ( 1.000000000000000000, 0.000000000000000000, 0.000000000000000000 ) ) ;
#70 = CLOSED_SHELL ( 'NONE', ( #1, #156, #286, #148, #227, #106, #170, #288, #31 ) ) ;
#71 = DIRECTION ( 'NONE',  ( -0.000000000000000000, -0.000000000000000000, -1.000000000000000000 ) ) ;
#72 =( GEOMETRIC_REPRESENTATION_CONTEXT ( 3 ) GLOBAL_UNCERTAINTY_ASSIGNED_CONTEXT ( ( #166 ) ) GLOBAL_UNIT_ASSIGNED_CONTEXT ( ( #304, #62, #90 ) ) REPRESENTATION_CONTEXT ( 'NONE', 'WORKASPACE' ) );
#73 = ORIENTED_EDGE ( 'NONE', *, *, #155, .T. ) ;
#74 = ORIENTED_EDGE ( 'NONE', *, *, #231, .F. ) ;
#75 = DIRECTION ( 'NONE',  ( 1.000000000000000000, 0.000000000000000000, 0.000000000000000000 ) ) ;
#76 = AXIS2_PLACEMENT_3D ( 'NONE', #269, #222, #55 ) ;
#77 = ORIENTED_EDGE ( 'NONE', *, *, #253, .F. ) ;
#78 = DIRECTION ( 'NONE',  ( 1.000000000000000000, 0.000000000000000000, 0.000000000000000000 ) ) ;
#79 = DIRECTION ( 'NONE',  ( 0.000000000000000000, 0.000000000000000000, 1.000000000000000000 ) ) ;
#80 = CARTESIAN_POINT ( 'NONE',  ( -2.000000000000000000, 0.000000000000000000, 103.0000000000000142 ) ) ;
#81 = CYLINDRICAL_SURFACE ( 'NONE', #136, 4.000000000000000000 ) ;
#82 = LINE ( 'NONE', #80, #192 ) ;
#83 = AXIS2_PLACEMENT_3D ( 'NONE', #190, #123, #61 ) ;
#84 = COORDINATED_UNIVERSAL_TIME_OFFSET ( 1, 0, .AHEAD. ) ;
#85 = APPROVAL_ROLE ( '' ) ;
#86 = ORIENTED_EDGE ( 'NONE', *, *, #56, .T. ) ;
#87 = MECHANICAL_CONTEXT ( 'NONE', #235, 'mechanical' ) ;
#88 = EDGE_CURVE ( 'NONE', #91, #18, #294, .T. ) ;
#89 = AXIS2_PLACEMENT_3D ( 'NONE', #51, #11, #248 ) ;
#90 =( NAMED_UNIT ( * ) SI_UNIT ( $, .STERADIAN. ) SOLID_ANGLE_UNIT ( ) );
#91 = VERTEX_POINT ( 'NONE', #93 ) ;
#92 = SHAPE_DEFINITION_REPRESENTATION ( #203, #303 ) ;
#93 = CARTESIAN_POINT ( 'NONE',  ( -2.000000000000000000, 0.000000000000000000, 3.199999999999994404 ) ) ;
#94 = ORIENTED_EDGE ( 'NONE', *, *, #253, .T. ) ;
#95 = DATE_AND_TIME ( #16, #157 ) ;
#96 = DIRECTION ( 'NONE',  ( 0.000000000000000000, 0.000000000000000000, 1.000000000000000000 ) ) ;
#97 = ORIENTED_EDGE ( 'NONE', *, *, #116, .T. ) ;
#98 = DIRECTION ( 'NONE',  ( -0.000000000000000000, -0.000000000000000000, -1.000000000000000000 ) ) ;
#99 = CARTESIAN_POINT ( 'NONE',  ( 0.000000000000000000, 0.000000000000000000, 3.000000000000000000 ) ) ;
#100 = CARTESIAN_POINT ( 'NONE',  ( 2.200000000000000178, 0.000000000000000000, 2.999999999999997335 ) ) ;
#101 = CARTESIAN_POINT ( 'NONE',  ( 2.200000000000000178, 0.000000000000000000, 3.199999999999994404 ) ) ;
#102 = AXIS2_PLACEMENT_3D ( 'NONE', #6, #217, #273 ) ;
#103 = DIRECTION ( 'NONE',  ( -1.000000000000000000, 0.000000000000000000, 0.000000000000000000 ) ) ;
#104 = EDGE_CURVE ( 'NONE', #264, #242, #119, .T. ) ;
#105 = CARTESIAN_POINT ( 'NONE',  ( -2.000000000000000000, 0.000000000000000000, 103.0000000000000142 ) ) ;
#106 = ADVANCED_FACE ( 'NONE', ( #305 ), #262, .F. ) ;
#107 = APPROVAL_STATUS ( 'not_yet_approved' ) ;
#108 = CC_DESIGN_DATE_AND_TIME_ASSIGNMENT ( #125, #197, ( #300 ) ) ;
#109 = COORDINATED_UNIVERSAL_TIME_OFFSET ( 1, 0, .AHEAD. ) ;
#110 = ORIENTED_EDGE ( 'NONE', *, *, #88, .F. ) ;
#111 = ORIENTED_EDGE ( 'NONE', *, *, #50, .F. ) ;
#112 = EDGE_CURVE ( 'NONE', #208, #21, #184, .T. ) ;
#113 = LINE ( 'NONE', #3, #4 ) ;
#114 = DIRECTION ( 'NONE',  ( 1.000000000000000000, 0.000000000000000000, 0.000000000000000000 ) ) ;
#115 = DIRECTION ( 'NONE',  ( 0.000000000000000000, 0.000000000000000000, 1.000000000000000000 ) ) ;
#116 = EDGE_CURVE ( 'NONE', #21, #68, #113, .T. ) ;
#117 = DIRECTION ( 'NONE',  ( 1.000000000000000000, 0.000000000000000000, -0.000000000000000000 ) ) ;
#118 = EDGE_LOOP ( 'NONE', ( #134, #63, #240, #128 ) ) ;
#119 = CIRCLE ( 'NONE', #14, 2.000000000000000000 ) ;
#120 = APPROVAL_PERSON_ORGANIZATION ( #229, #265, #85 ) ;
#121 = CYLINDRICAL_SURFACE ( 'NONE', #76, 2.000000000000000000 ) ;
#122 = DIRECTION ( 'NONE',  ( -1.000000000000000000, 0.000000000000000000, 0.000000000000000000 ) ) ;
#123 = DIRECTION ( 'NONE',  ( 0.000000000000000000, 0.000000000000000000, 1.000000000000000000 ) ) ;
#124 = DIRECTION ( 'NONE',  ( 1.000000000000000000, 0.000000000000000000, 0.000000000000000000 ) ) ;
#125 = DATE_AND_TIME ( #281, #198 ) ;
#126 = PERSON_AND_ORGANIZATION ( #211, #153 ) ;
#127 = APPROVAL_ROLE ( '' ) ;
#128 = ORIENTED_EDGE ( 'NONE', *, *, #88, .T. ) ;
#129 = MANIFOLD_SOLID_BREP ( 'Zaoblit1', #70 ) ;
#130 = CALENDAR_DATE ( 2022, 7, 7 ) ;
#131 = EDGE_CURVE ( 'NONE', #242, #264, #225, .T. ) ;
#132 = PERSON_AND_ORGANIZATION_ROLE ( 'design_supplier' ) ;
#133 = CIRCLE ( 'NONE', #89, 0.2000000000000000944 ) ;
#134 = ORIENTED_EDGE ( 'NONE', *, *, #216, .F. ) ;
#135 = CARTESIAN_POINT ( 'NONE',  ( 0.000000000000000000, 0.000000000000000000, 3.199999999999994404 ) ) ;
#136 = AXIS2_PLACEMENT_3D ( 'NONE', #195, #266, #103 ) ;
#137 = LOCAL_TIME ( 12, 26, 40.00000000000000000, #109 ) ;
#138 = CARTESIAN_POINT ( 'NONE',  ( 0.000000000000000000, 0.000000000000000000, 3.199999999999994404 ) ) ;
#139 = EDGE_CURVE ( 'NONE', #264, #91, #82, .T. ) ;
#140 = EDGE_CURVE ( 'NONE', #280, #176, #272, .T. ) ;
#141 = ORIENTED_EDGE ( 'NONE', *, *, #25, .F. ) ;
#142 = CARTESIAN_POINT ( 'NONE',  ( 0.000000000000000000, 0.000000000000000000, 3.000000000000000000 ) ) ;
#143 = VECTOR ( 'NONE', #71, 1000.000000000000000 ) ;
#144 = VECTOR ( 'NONE', #297, 1000.000000000000000 ) ;
#145 = DIRECTION ( 'NONE',  ( 0.000000000000000000, 0.000000000000000000, 1.000000000000000000 ) ) ;
#146 = CARTESIAN_POINT ( 'NONE',  ( 0.000000000000000000, 0.000000000000000000, 3.000000000000000000 ) ) ;
#147 = CARTESIAN_POINT ( 'NONE',  ( -4.000000000000000000, 0.000000000000000000, 0.000000000000000000 ) ) ;
#148 = ADVANCED_FACE ( 'NONE', ( #244 ), #81, .T. ) ;
#149 = CARTESIAN_POINT ( 'NONE',  ( 2.000000000000000000, 2.449293598294706414E-16, 103.0000000000000142 ) ) ;
#150 = APPROVAL_STATUS ( 'not_yet_approved' ) ;
#151 = ORIENTED_EDGE ( 'NONE', *, *, #131, .T. ) ;
#152 = AXIS2_PLACEMENT_3D ( 'NONE', #260, #287, #45 ) ;
#153 = ORGANIZATION ( 'NEURÈENÝ', 'NEURÈENÝ', '' ) ;
#154 = PERSON_AND_ORGANIZATION ( #211, #153 ) ;
#155 = EDGE_CURVE ( 'NONE', #18, #176, #247, .T. ) ;
#156 = ADVANCED_FACE ( 'NONE', ( #298 ), #30, .T. ) ;
#157 = LOCAL_TIME ( 12, 26, 40.00000000000000000, #226 ) ;
#158 = VERTEX_POINT ( 'NONE', #147 ) ;
#159 = EDGE_CURVE ( 'NONE', #91, #280, #133, .T. ) ;
#160 = CARTESIAN_POINT ( 'NONE',  ( 4.000000000000000000, 4.898587196589412829E-16, 3.000000000000000000 ) ) ;
#161 = FACE_OUTER_BOUND ( 'NONE', #254, .T. ) ;
#162 = AXIS2_PLACEMENT_3D ( 'NONE', #171, #270, #58 ) ;
#163 = CC_DESIGN_PERSON_AND_ORGANIZATION_ASSIGNMENT ( #278, #34, ( #219 ) ) ;
#164 = FACE_OUTER_BOUND ( 'NONE', #276, .T. ) ;
#165 = CARTESIAN_POINT ( 'NONE',  ( 0.000000000000000000, 0.000000000000000000, 3.000000000000000000 ) ) ;
#166 = UNCERTAINTY_MEASURE_WITH_UNIT (LENGTH_MEASURE( 1.000000000000000082E-05 ), #304, 'distance_accuracy_value', 'NONE');
#167 = LINE ( 'NONE', #32, #144 ) ;
#168 = CIRCLE ( 'NONE', #279, 4.000000000000000000 ) ;
#169 = FACE_OUTER_BOUND ( 'NONE', #118, .T. ) ;
#170 = ADVANCED_FACE ( 'NONE', ( #169 ), #121, .T. ) ;
#171 = CARTESIAN_POINT ( 'NONE',  ( 0.000000000000000000, 0.000000000000000000, 103.0000000000000142 ) ) ;
#172 = PLANE ( 'NONE',  #102 ) ;
#173 = CIRCLE ( 'NONE', #83, 4.000000000000000000 ) ;
#174 = SECURITY_CLASSIFICATION_LEVEL ( 'unclassified' ) ;
#175 = PERSON_AND_ORGANIZATION ( #211, #153 ) ;
#176 = VERTEX_POINT ( 'NONE', #100 ) ;
#177 = ORIENTED_EDGE ( 'NONE', *, *, #116, .F. ) ;
#178 = TOROIDAL_SURFACE ( 'NONE', #207, 2.200000000000000178, 0.2000000000000000111 ) ;
#179 = CARTESIAN_POINT ( 'NONE',  ( 0.000000000000000000, 0.000000000000000000, 0.000000000000000000 ) ) ;
#180 = ORIENTED_EDGE ( 'NONE', *, *, #131, .F. ) ;
#181 = PERSON_AND_ORGANIZATION_ROLE ( 'creator' ) ;
#182 = ORIENTED_EDGE ( 'NONE', *, *, #112, .T. ) ;
#183 = DIRECTION ( 'NONE',  ( 1.000000000000000000, 0.000000000000000000, 0.000000000000000000 ) ) ;
#184 = CIRCLE ( 'NONE', #52, 4.000000000000000000 ) ;
#185 = EDGE_LOOP ( 'NONE', ( #177, #22, #86, #202 ) ) ;
#186 = CARTESIAN_POINT ( 'NONE',  ( 4.000000000000000000, 4.898587196589412829E-16, 0.000000000000000000 ) ) ;
#187 = ORIENTED_EDGE ( 'NONE', *, *, #212, .F. ) ;
#188 = TOROIDAL_SURFACE ( 'NONE', #284, 2.200000000000000178, 0.2000000000000000111 ) ;
#189 = CARTESIAN_POINT ( 'NONE',  ( 0.000000000000000000, 0.000000000000000000, 103.0000000000000142 ) ) ;
#190 = CARTESIAN_POINT ( 'NONE',  ( 0.000000000000000000, 0.000000000000000000, 0.000000000000000000 ) ) ;
#191 = DIRECTION ( 'NONE',  ( -0.000000000000000000, -0.000000000000000000, -1.000000000000000000 ) ) ;
#192 = VECTOR ( 'NONE', #196, 1000.000000000000000 ) ;
#193 = CARTESIAN_POINT ( 'NONE',  ( 0.000000000000000000, 0.000000000000000000, 103.0000000000000142 ) ) ;
#194 = SECURITY_CLASSIFICATION ( '', '', #174 ) ;
#195 = CARTESIAN_POINT ( 'NONE',  ( 0.000000000000000000, 0.000000000000000000, 3.000000000000000000 ) ) ;
#196 = DIRECTION ( 'NONE',  ( -0.000000000000000000, -0.000000000000000000, -1.000000000000000000 ) ) ;
#197 = DATE_TIME_ROLE ( 'creation_date' ) ;
#198 = LOCAL_TIME ( 12, 26, 40.00000000000000000, #84 ) ;
#199 = DATE_AND_TIME ( #130, #54 ) ;
#200 = EDGE_LOOP ( 'NONE', ( #77, #97, #256, #27 ) ) ;
#201 = DATE_TIME_ROLE ( 'classification_date' ) ;
#202 = ORIENTED_EDGE ( 'NONE', *, *, #212, .T. ) ;
#203 = PRODUCT_DEFINITION_SHAPE ( 'NONE', 'NONE',  #300 ) ;
#204 = COORDINATED_UNIVERSAL_TIME_OFFSET ( 1, 0, .AHEAD. ) ;
#205 = CARTESIAN_POINT ( 'NONE',  ( 0.000000000000000000, 0.000000000000000000, 3.199999999999994404 ) ) ;
#206 = AXIS2_PLACEMENT_3D ( 'NONE', #138, #96, #261 ) ;
#207 = AXIS2_PLACEMENT_3D ( 'NONE', #205, #115, #114 ) ;
#208 = VERTEX_POINT ( 'NONE', #220 ) ;
#209 = DIRECTION ( 'NONE',  ( 1.000000000000000000, 0.000000000000000000, 0.000000000000000000 ) ) ;
#210 = DIRECTION ( 'NONE',  ( 0.000000000000000000, 0.000000000000000000, 1.000000000000000000 ) ) ;
#211 = PERSON ( 'NEURÈENÝ', 'NEURÈENÝ', 'NEURÈENÝ', ('NEURÈENÝ'), ('NEURÈENÝ'), ('NEURÈENÝ') ) ;
#212 = EDGE_CURVE ( 'NONE', #158, #68, #173, .T. ) ;
#213 = AXIS2_PLACEMENT_3D ( 'NONE', #46, #2, #117 ) ;
#214 = PRODUCT_DEFINITION_FORMATION_WITH_SPECIFIED_SOURCE ( 'LIBOVOLNÝ', '', #219, .NOT_KNOWN. ) ;
#215 = DIRECTION ( 'NONE',  ( 0.000000000000000000, -1.000000000000000000, 0.000000000000000000 ) ) ;
#216 = EDGE_CURVE ( 'NONE', #242, #18, #167, .T. ) ;
#217 = DIRECTION ( 'NONE',  ( 0.000000000000000000, 0.000000000000000000, 1.000000000000000000 ) ) ;
#218 = FACE_OUTER_BOUND ( 'NONE', #42, .T. ) ;
#219 = PRODUCT ( 'd375', 'd375', '', ( #87 ) ) ;
#220 = CARTESIAN_POINT ( 'NONE',  ( -4.000000000000000000, 0.000000000000000000, 3.000000000000000000 ) ) ;
#221 = CC_DESIGN_APPROVAL ( #53, ( #300 ) ) ;
#222 = DIRECTION ( 'NONE',  ( -0.000000000000000000, -0.000000000000000000, -1.000000000000000000 ) ) ;
#223 = APPLICATION_PROTOCOL_DEFINITION ( 'international standard', 'config_control_design', 1994, #271 ) ;
#224 = DATE_AND_TIME ( #275, #301 ) ;
#225 = CIRCLE ( 'NONE', #23, 2.000000000000000000 ) ;
#226 = COORDINATED_UNIVERSAL_TIME_OFFSET ( 1, 0, .AHEAD. ) ;
#227 = ADVANCED_FACE ( 'NONE', ( #57, #28 ), #172, .T. ) ;
#228 = ORIENTED_EDGE ( 'NONE', *, *, #50, .T. ) ;
#229 = PERSON_AND_ORGANIZATION ( #211, #153 ) ;
#230 = ORIENTED_EDGE ( 'NONE', *, *, #159, .T. ) ;
#231 = EDGE_CURVE ( 'NONE', #68, #158, #168, .T. ) ;
#232 = PERSON_AND_ORGANIZATION ( #211, #153 ) ;
#233 = CIRCLE ( 'NONE', #60, 2.200000000000000178 ) ;
#234 = EDGE_LOOP ( 'NONE', ( #182, #94 ) ) ;
#235 = APPLICATION_CONTEXT ( 'configuration controlled 3d designs of mechanical parts and assemblies' ) ;
#236 = CARTESIAN_POINT ( 'NONE',  ( 0.000000000000000000, 0.000000000000000000, 103.0000000000000142 ) ) ;
#237 = EDGE_LOOP ( 'NONE', ( #180, #258, #47, #277 ) ) ;
#238 = AXIS2_PLACEMENT_3D ( 'NONE', #142, #191, #78 ) ;
#239 = CC_DESIGN_APPROVAL ( #48, ( #194 ) ) ;
#240 = ORIENTED_EDGE ( 'NONE', *, *, #139, .T. ) ;
#241 = DIRECTION ( 'NONE',  ( 0.000000000000000000, 0.000000000000000000, 1.000000000000000000 ) ) ;
#242 = VERTEX_POINT ( 'NONE', #149 ) ;
#243 = CC_DESIGN_PERSON_AND_ORGANIZATION_ASSIGNMENT ( #154, #181, ( #300 ) ) ;
#244 = FACE_OUTER_BOUND ( 'NONE', #185, .T. ) ;
#245 = FACE_OUTER_BOUND ( 'NONE', #200, .T. ) ;
#246 = DIRECTION ( 'NONE',  ( 1.000000000000000000, 0.000000000000000000, -0.000000000000000000 ) ) ;
#247 = CIRCLE ( 'NONE', #9, 0.2000000000000000944 ) ;
#248 = DIRECTION ( 'NONE',  ( -1.000000000000000000, 1.224646799147353207E-16, 0.000000000000000000 ) ) ;
#249 = CARTESIAN_POINT ( 'NONE',  ( -2.200000000000000178, 2.694222958124177006E-16, 2.999999999999997335 ) ) ;
#250 = APPROVAL_DATE_TIME ( #299, #265 ) ;
#251 = PRODUCT_RELATED_PRODUCT_CATEGORY ( 'detail', '', ( #219 ) ) ;
#252 = ORIENTED_EDGE ( 'NONE', *, *, #140, .T. ) ;
#253 = EDGE_CURVE ( 'NONE', #21, #208, #19, .T. ) ;
#254 = EDGE_LOOP ( 'NONE', ( #110, #230, #111, #282 ) ) ;
#255 = APPROVAL_ROLE ( '' ) ;
#256 = ORIENTED_EDGE ( 'NONE', *, *, #231, .T. ) ;
#257 = APPROVAL_DATE_TIME ( #199, #53 ) ;
#258 = ORIENTED_EDGE ( 'NONE', *, *, #216, .T. ) ;
#259 = AXIS2_PLACEMENT_3D ( 'NONE', #146, #145, #12 ) ;
#260 = CARTESIAN_POINT ( 'NONE',  ( 0.000000000000000000, 0.000000000000000000, 3.199999999999994404 ) ) ;
#261 = DIRECTION ( 'NONE',  ( 1.000000000000000000, 0.000000000000000000, 0.000000000000000000 ) ) ;
#262 = PLANE ( 'NONE',  #213 ) ;
#263 = EDGE_LOOP ( 'NONE', ( #187, #74 ) ) ;
#264 = VERTEX_POINT ( 'NONE', #105 ) ;
#265 = APPROVAL ( #67, 'NEURÈENÝ' ) ;
#266 = DIRECTION ( 'NONE',  ( -0.000000000000000000, -0.000000000000000000, -1.000000000000000000 ) ) ;
#267 = DESIGN_CONTEXT ( 'detailed design', #271, 'design' ) ;
#268 = DIRECTION ( 'NONE',  ( 1.000000000000000000, 0.000000000000000000, 0.000000000000000000 ) ) ;
#269 = CARTESIAN_POINT ( 'NONE',  ( 0.000000000000000000, 0.000000000000000000, 103.0000000000000142 ) ) ;
#270 = DIRECTION ( 'NONE',  ( -0.000000000000000000, -0.000000000000000000, -1.000000000000000000 ) ) ;
#271 = APPLICATION_CONTEXT ( 'configuration controlled 3d designs of mechanical parts and assemblies' ) ;
#272 = CIRCLE ( 'NONE', #238, 2.200000000000000178 ) ;
#273 = DIRECTION ( 'NONE',  ( 1.000000000000000000, 0.000000000000000000, -0.000000000000000000 ) ) ;
#274 = AXIS2_PLACEMENT_3D ( 'NONE', #179, #38, #69 ) ;
#275 = CALENDAR_DATE ( 2022, 7, 7 ) ;
#276 = EDGE_LOOP ( 'NONE', ( #41, #141, #73, #39 ) ) ;
#277 = ORIENTED_EDGE ( 'NONE', *, *, #139, .F. ) ;
#278 = PERSON_AND_ORGANIZATION ( #211, #153 ) ;
#279 = AXIS2_PLACEMENT_3D ( 'NONE', #293, #79, #268 ) ;
#280 = VERTEX_POINT ( 'NONE', #249 ) ;
#281 = CALENDAR_DATE ( 2022, 7, 7 ) ;
#282 = ORIENTED_EDGE ( 'NONE', *, *, #155, .F. ) ;
#283 = DIRECTION ( 'NONE',  ( -0.000000000000000000, -0.000000000000000000, -1.000000000000000000 ) ) ;
#284 = AXIS2_PLACEMENT_3D ( 'NONE', #135, #289, #209 ) ;
#285 = EDGE_LOOP ( 'NONE', ( #228, #252 ) ) ;
#286 = ADVANCED_FACE ( 'NONE', ( #245 ), #5, .T. ) ;
#287 = DIRECTION ( 'NONE',  ( 0.000000000000000000, 0.000000000000000000, 1.000000000000000000 ) ) ;
#288 = ADVANCED_FACE ( 'NONE', ( #218 ), #7, .T. ) ;
#289 = DIRECTION ( 'NONE',  ( 0.000000000000000000, 0.000000000000000000, 1.000000000000000000 ) ) ;
#290 = AXIS2_PLACEMENT_3D ( 'NONE', #99, #29, #122 ) ;
#291 = CARTESIAN_POINT ( 'NONE',  ( -4.000000000000000000, 0.000000000000000000, 3.000000000000000000 ) ) ;
#292 = DIRECTION ( 'NONE',  ( 0.000000000000000000, 0.000000000000000000, -1.000000000000000000 ) ) ;
#293 = CARTESIAN_POINT ( 'NONE',  ( 0.000000000000000000, 0.000000000000000000, 0.000000000000000000 ) ) ;
#294 = CIRCLE ( 'NONE', #152, 2.000000000000000000 ) ;
#295 = CC_DESIGN_APPROVAL ( #265, ( #214 ) ) ;
#296 = DIRECTION ( 'NONE',  ( 0.000000000000000000, 0.000000000000000000, 1.000000000000000000 ) ) ;
#297 = DIRECTION ( 'NONE',  ( -0.000000000000000000, -0.000000000000000000, -1.000000000000000000 ) ) ;
#298 = FACE_OUTER_BOUND ( 'NONE', #237, .T. ) ;
#299 = DATE_AND_TIME ( #13, #137 ) ;
#300 = PRODUCT_DEFINITION ( 'NEZNÁMÝ', '', #214, #267 ) ;
#301 = LOCAL_TIME ( 12, 26, 40.00000000000000000, #204 ) ;
#302 = APPLICATION_PROTOCOL_DEFINITION ( 'international standard', 'config_control_design', 1994, #235 ) ;
#303 = ADVANCED_BREP_SHAPE_REPRESENTATION ( 'd375', ( #129, #274 ), #72 ) ;
#304 =( LENGTH_UNIT ( ) NAMED_UNIT ( * ) SI_UNIT ( .MILLI., .METRE. ) );
#305 = FACE_OUTER_BOUND ( 'NONE', #263, .T. ) ;
#306 = CARTESIAN_POINT ( 'NONE',  ( 2.000000000000000000, 2.449293598294706414E-16, 3.199999999999994404 ) ) ;
#307 = CARTESIAN_POINT ( 'NONE',  ( 0.000000000000000000, 0.000000000000000000, 3.000000000000000000 ) ) ;
ENDSEC;
END-ISO-10303-21;
