ISO-10303-21;
HEADER;
FILE_DESCRIPTION (( 'STEP AP203' ),
    '1' );
FILE_NAME ('af98.STEP',
    '2023-02-12T12:37:38',
    ( '' ),
    ( '' ),
    'SwSTEP 2.0',
    'SolidWorks 2019',
    '' );
FILE_SCHEMA (( 'CONFIG_CONTROL_DESIGN' ));
ENDSEC;

DATA;
#1 = CC_DESIGN_APPROVAL ( #244, ( #211 ) ) ;
#2 = APPLICATION_PROTOCOL_DEFINITION ( 'international standard', 'config_control_design', 1994, #134 ) ;
#3 = APPROVAL_PERSON_ORGANIZATION ( #133, #244, #43 ) ;
#4 = PERSON_AND_ORGANIZATION_ROLE ( 'creator' ) ;
#5 = ADVANCED_FACE ( 'NONE', ( #245 ), #243, .T. ) ;
#6 = PRODUCT_DEFINITION ( 'NEZNÁMÝ', '', #211, #110 ) ;
#7 = DIRECTION ( 'NONE',  ( -1.000000000000000000, 0.000000000000000000, 0.000000000000000000 ) ) ;
#8 = LINE ( 'NONE', #33, #98 ) ;
#9 = CYLINDRICAL_SURFACE ( 'NONE', #67, 4.000000000000000000 ) ;
#10 = APPROVAL_STATUS ( 'not_yet_approved' ) ;
#11 = CARTESIAN_POINT ( 'NONE',  ( 0.000000000000000000, 0.000000000000000000, 3.000000000000000000 ) ) ;
#12 = VERTEX_POINT ( 'NONE', #93 ) ;
#13 = AXIS2_PLACEMENT_3D ( 'NONE', #146, #222, #126 ) ;
#14 = ORIENTED_EDGE ( 'NONE', *, *, #122, .T. ) ;
#15 = EDGE_LOOP ( 'NONE', ( #74, #127, #200, #182 ) ) ;
#16 = CC_DESIGN_PERSON_AND_ORGANIZATION_ASSIGNMENT ( #138, #168, ( #211 ) ) ;
#17 = PERSON_AND_ORGANIZATION ( #96, #42 ) ;
#18 = EDGE_CURVE ( 'NONE', #111, #108, #240, .T. ) ;
#19 = COORDINATED_UNIVERSAL_TIME_OFFSET ( 1, 0, .AHEAD. ) ;
#20 = APPROVAL ( #10, 'NEURÈENÝ' ) ;
#21 = CIRCLE ( 'NONE', #153, 2.100000000000000089 ) ;
#22 = EDGE_CURVE ( 'NONE', #131, #54, #141, .T. ) ;
#23 = AXIS2_PLACEMENT_3D ( 'NONE', #41, #164, #148 ) ;
#24 = DIRECTION ( 'NONE',  ( 0.000000000000000000, 0.000000000000000000, 1.000000000000000000 ) ) ;
#25 = DIRECTION ( 'NONE',  ( -1.000000000000000000, 0.000000000000000000, 0.000000000000000000 ) ) ;
#26 = CARTESIAN_POINT ( 'NONE',  ( -4.000000000000000000, 0.000000000000000000, 3.000000000000000000 ) ) ;
#27 = CC_DESIGN_PERSON_AND_ORGANIZATION_ASSIGNMENT ( #121, #158, ( #38 ) ) ;
#28 = DIRECTION ( 'NONE',  ( 1.000000000000000000, 0.000000000000000000, 0.000000000000000000 ) ) ;
#29 = COORDINATED_UNIVERSAL_TIME_OFFSET ( 1, 0, .AHEAD. ) ;
#30 = AXIS2_PLACEMENT_3D ( 'NONE', #230, #24, #197 ) ;
#31 = CARTESIAN_POINT ( 'NONE',  ( 2.100000000000000089, 2.571758278209441464E-16, 100.0000000000000000 ) ) ;
#32 = PERSON_AND_ORGANIZATION ( #96, #42 ) ;
#33 = CARTESIAN_POINT ( 'NONE',  ( -4.000000000000000000, 0.000000000000000000, 3.000000000000000000 ) ) ;
#34 = ORIENTED_EDGE ( 'NONE', *, *, #68, .T. ) ;
#35 = PRODUCT_DEFINITION_SHAPE ( 'NONE', 'NONE',  #6 ) ;
#36 = LINE ( 'NONE', #65, #90 ) ;
#37 = VERTEX_POINT ( 'NONE', #31 ) ;
#38 = SECURITY_CLASSIFICATION ( '', '', #84 ) ;
#39 = DIRECTION ( 'NONE',  ( 0.000000000000000000, 0.000000000000000000, 1.000000000000000000 ) ) ;
#40 =( NAMED_UNIT ( * ) SI_UNIT ( $, .STERADIAN. ) SOLID_ANGLE_UNIT ( ) );
#41 = CARTESIAN_POINT ( 'NONE',  ( 0.000000000000000000, 0.000000000000000000, 100.0000000000000000 ) ) ;
#42 = ORGANIZATION ( 'NEURÈENÝ', 'NEURÈENÝ', '' ) ;
#43 = APPROVAL_ROLE ( '' ) ;
#44 = APPROVAL_ROLE ( '' ) ;
#45 = CIRCLE ( 'NONE', #63, 4.000000000000000000 ) ;
#46 = DIRECTION ( 'NONE',  ( 1.000000000000000000, 0.000000000000000000, 0.000000000000000000 ) ) ;
#47 = LINE ( 'NONE', #50, #235 ) ;
#48 = LOCAL_TIME ( 13, 37, 38.00000000000000000, #228 ) ;
#49 = CALENDAR_DATE ( 2023, 12, 2 ) ;
#50 = CARTESIAN_POINT ( 'NONE',  ( 4.000000000000000000, 4.898587196589412829E-16, 3.000000000000000000 ) ) ;
#51 = APPROVAL_DATE_TIME ( #101, #244 ) ;
#52 = DIRECTION ( 'NONE',  ( 0.000000000000000000, 0.000000000000000000, 1.000000000000000000 ) ) ;
#53 = DIRECTION ( 'NONE',  ( 0.000000000000000000, 0.000000000000000000, 1.000000000000000000 ) ) ;
#54 = VERTEX_POINT ( 'NONE', #239 ) ;
#55 = ORIENTED_EDGE ( 'NONE', *, *, #221, .T. ) ;
#56 = LOCAL_TIME ( 13, 37, 38.00000000000000000, #212 ) ;
#57 = ORIENTED_EDGE ( 'NONE', *, *, #130, .F. ) ;
#58 = CARTESIAN_POINT ( 'NONE',  ( 0.000000000000000000, 0.000000000000000000, 100.0000000000000000 ) ) ;
#59 = CARTESIAN_POINT ( 'NONE',  ( 0.000000000000000000, 0.000000000000000000, 0.000000000000000000 ) ) ;
#60 = FACE_OUTER_BOUND ( 'NONE', #94, .T. ) ;
#61 = CIRCLE ( 'NONE', #191, 2.100000000000000089 ) ;
#62 =( LENGTH_UNIT ( ) NAMED_UNIT ( * ) SI_UNIT ( .MILLI., .METRE. ) );
#63 = AXIS2_PLACEMENT_3D ( 'NONE', #252, #39, #112 ) ;
#64 = EDGE_CURVE ( 'NONE', #70, #37, #61, .T. ) ;
#65 = CARTESIAN_POINT ( 'NONE',  ( 2.100000000000000089, 2.571758278209441464E-16, 100.0000000000000000 ) ) ;
#66 = CARTESIAN_POINT ( 'NONE',  ( 0.000000000000000000, 0.000000000000000000, 100.0000000000000000 ) ) ;
#67 = AXIS2_PLACEMENT_3D ( 'NONE', #123, #69, #7 ) ;
#68 = EDGE_CURVE ( 'NONE', #70, #54, #144, .T. ) ;
#69 = DIRECTION ( 'NONE',  ( -0.000000000000000000, -0.000000000000000000, -1.000000000000000000 ) ) ;
#70 = VERTEX_POINT ( 'NONE', #181 ) ;
#71 = CARTESIAN_POINT ( 'NONE',  ( -4.000000000000000000, 0.000000000000000000, 0.000000000000000000 ) ) ;
#72 = ORIENTED_EDGE ( 'NONE', *, *, #64, .T. ) ;
#73 = CARTESIAN_POINT ( 'NONE',  ( 0.000000000000000000, 0.000000000000000000, 0.000000000000000000 ) ) ;
#74 = ORIENTED_EDGE ( 'NONE', *, *, #221, .F. ) ;
#75 = VERTEX_POINT ( 'NONE', #26 ) ;
#76 = SHAPE_DEFINITION_REPRESENTATION ( #35, #215 ) ;
#77 = MANIFOLD_SOLID_BREP ( 'Pøidat vysunutím3', #231 ) ;
#78 = FACE_BOUND ( 'NONE', #149, .T. ) ;
#79 = COORDINATED_UNIVERSAL_TIME_OFFSET ( 1, 0, .AHEAD. ) ;
#80 = CIRCLE ( 'NONE', #137, 4.000000000000000000 ) ;
#81 = LOCAL_TIME ( 13, 37, 38.00000000000000000, #79 ) ;
#82 = ADVANCED_FACE ( 'NONE', ( #102 ), #155, .T. ) ;
#83 = CARTESIAN_POINT ( 'NONE',  ( 4.000000000000000000, 4.898587196589412829E-16, 0.000000000000000000 ) ) ;
#84 = SECURITY_CLASSIFICATION_LEVEL ( 'unclassified' ) ;
#85 = CARTESIAN_POINT ( 'NONE',  ( 0.000000000000000000, 0.000000000000000000, 3.000000000000000000 ) ) ;
#86 = DIRECTION ( 'NONE',  ( -0.000000000000000000, -0.000000000000000000, -1.000000000000000000 ) ) ;
#87 = DIRECTION ( 'NONE',  ( 0.000000000000000000, 0.000000000000000000, 1.000000000000000000 ) ) ;
#88 = ADVANCED_FACE ( 'NONE', ( #125 ), #9, .T. ) ;
#89 = ORIENTED_EDGE ( 'NONE', *, *, #227, .T. ) ;
#90 = VECTOR ( 'NONE', #139, 1000.000000000000000 ) ;
#91 = EDGE_LOOP ( 'NONE', ( #72, #163 ) ) ;
#92 = EDGE_LOOP ( 'NONE', ( #242, #217 ) ) ;
#93 = CARTESIAN_POINT ( 'NONE',  ( 4.000000000000000000, 4.898587196589412829E-16, 3.000000000000000000 ) ) ;
#94 = EDGE_LOOP ( 'NONE', ( #129, #55 ) ) ;
#95 = AXIS2_PLACEMENT_3D ( 'NONE', #58, #107, #132 ) ;
#96 = PERSON ( 'NEURÈENÝ', 'NEURÈENÝ', 'NEURÈENÝ', ('NEURÈENÝ'), ('NEURÈENÝ'), ('NEURÈENÝ') ) ;
#97 = CC_DESIGN_PERSON_AND_ORGANIZATION_ASSIGNMENT ( #17, #253, ( #6 ) ) ;
#98 = VECTOR ( 'NONE', #237, 1000.000000000000000 ) ;
#99 = EDGE_CURVE ( 'NONE', #54, #131, #173, .T. ) ;
#100 = CC_DESIGN_APPROVAL ( #20, ( #38 ) ) ;
#101 = DATE_AND_TIME ( #255, #143 ) ;
#102 = FACE_OUTER_BOUND ( 'NONE', #184, .T. ) ;
#103 = DATE_TIME_ROLE ( 'classification_date' ) ;
#104 = AXIS2_PLACEMENT_3D ( 'NONE', #119, #193, #25 ) ;
#105 = PLANE ( 'NONE',  #232 ) ;
#106 = PRODUCT ( 'af98', 'af98', '', ( #186 ) ) ;
#107 = DIRECTION ( 'NONE',  ( 0.000000000000000000, 0.000000000000000000, 1.000000000000000000 ) ) ;
#108 = VERTEX_POINT ( 'NONE', #71 ) ;
#109 = ORIENTED_EDGE ( 'NONE', *, *, #68, .F. ) ;
#110 = DESIGN_CONTEXT ( 'detailed design', #134, 'design' ) ;
#111 = VERTEX_POINT ( 'NONE', #83 ) ;
#112 = DIRECTION ( 'NONE',  ( 1.000000000000000000, 0.000000000000000000, 0.000000000000000000 ) ) ;
#113 = DIRECTION ( 'NONE',  ( 0.000000000000000000, 0.000000000000000000, 1.000000000000000000 ) ) ;
#114 = PRODUCT_RELATED_PRODUCT_CATEGORY ( 'detail', '', ( #106 ) ) ;
#115 = DIRECTION ( 'NONE',  ( 0.000000000000000000, 0.000000000000000000, 1.000000000000000000 ) ) ;
#116 = AXIS2_PLACEMENT_3D ( 'NONE', #59, #113, #254 ) ;
#117 = VECTOR ( 'NONE', #157, 1000.000000000000000 ) ;
#118 = FACE_OUTER_BOUND ( 'NONE', #92, .T. ) ;
#119 = CARTESIAN_POINT ( 'NONE',  ( 0.000000000000000000, 0.000000000000000000, 3.000000000000000000 ) ) ;
#120 = APPROVAL_PERSON_ORGANIZATION ( #174, #218, #44 ) ;
#121 = PERSON_AND_ORGANIZATION ( #96, #42 ) ;
#122 = EDGE_CURVE ( 'NONE', #75, #108, #8, .T. ) ;
#123 = CARTESIAN_POINT ( 'NONE',  ( 0.000000000000000000, 0.000000000000000000, 3.000000000000000000 ) ) ;
#124 = CC_DESIGN_PERSON_AND_ORGANIZATION_ASSIGNMENT ( #190, #4, ( #211 ) ) ;
#125 = FACE_OUTER_BOUND ( 'NONE', #167, .T. ) ;
#126 = DIRECTION ( 'NONE',  ( 1.000000000000000000, 0.000000000000000000, 0.000000000000000000 ) ) ;
#127 = ORIENTED_EDGE ( 'NONE', *, *, #130, .T. ) ;
#128 = CARTESIAN_POINT ( 'NONE',  ( 0.000000000000000000, 0.000000000000000000, 0.000000000000000000 ) ) ;
#129 = ORIENTED_EDGE ( 'NONE', *, *, #177, .T. ) ;
#130 = EDGE_CURVE ( 'NONE', #12, #111, #47, .T. ) ;
#131 = VERTEX_POINT ( 'NONE', #238 ) ;
#132 = DIRECTION ( 'NONE',  ( 1.000000000000000000, 0.000000000000000000, -0.000000000000000000 ) ) ;
#133 = PERSON_AND_ORGANIZATION ( #96, #42 ) ;
#134 = APPLICATION_CONTEXT ( 'configuration controlled 3d designs of mechanical parts and assemblies' ) ;
#135 = ADVANCED_FACE ( 'NONE', ( #178 ), #140, .T. ) ;
#136 = CC_DESIGN_PERSON_AND_ORGANIZATION_ASSIGNMENT ( #188, #175, ( #106 ) ) ;
#137 = AXIS2_PLACEMENT_3D ( 'NONE', #128, #171, #226 ) ;
#138 = PERSON_AND_ORGANIZATION ( #96, #42 ) ;
#139 = DIRECTION ( 'NONE',  ( -0.000000000000000000, -0.000000000000000000, -1.000000000000000000 ) ) ;
#140 = CYLINDRICAL_SURFACE ( 'NONE', #104, 4.000000000000000000 ) ;
#141 = CIRCLE ( 'NONE', #161, 2.100000000000000089 ) ;
#142 = DIRECTION ( 'NONE',  ( 1.000000000000000000, 0.000000000000000000, 0.000000000000000000 ) ) ;
#143 = LOCAL_TIME ( 13, 37, 38.00000000000000000, #19 ) ;
#144 = LINE ( 'NONE', #210, #117 ) ;
#145 = DIRECTION ( 'NONE',  ( -1.000000000000000000, 0.000000000000000000, 0.000000000000000000 ) ) ;
#146 = CARTESIAN_POINT ( 'NONE',  ( 0.000000000000000000, 0.000000000000000000, 3.000000000000000000 ) ) ;
#147 = ORIENTED_EDGE ( 'NONE', *, *, #156, .T. ) ;
#148 = DIRECTION ( 'NONE',  ( -1.000000000000000000, 0.000000000000000000, 0.000000000000000000 ) ) ;
#149 = EDGE_LOOP ( 'NONE', ( #169, #185 ) ) ;
#150 = PLANE ( 'NONE',  #95 ) ;
#151 = CALENDAR_DATE ( 2023, 12, 2 ) ;
#152 = CARTESIAN_POINT ( 'NONE',  ( 0.000000000000000000, 0.000000000000000000, 100.0000000000000000 ) ) ;
#153 = AXIS2_PLACEMENT_3D ( 'NONE', #152, #115, #46 ) ;
#154 = CC_DESIGN_DATE_AND_TIME_ASSIGNMENT ( #195, #103, ( #38 ) ) ;
#155 = CYLINDRICAL_SURFACE ( 'NONE', #189, 2.100000000000000089 ) ;
#156 = EDGE_CURVE ( 'NONE', #108, #111, #80, .T. ) ;
#157 = DIRECTION ( 'NONE',  ( -0.000000000000000000, -0.000000000000000000, -1.000000000000000000 ) ) ;
#158 = PERSON_AND_ORGANIZATION_ROLE ( 'classification_officer' ) ;
#159 = DIRECTION ( 'NONE',  ( 1.000000000000000000, 0.000000000000000000, 0.000000000000000000 ) ) ;
#160 = DIRECTION ( 'NONE',  ( 1.000000000000000000, 0.000000000000000000, 0.000000000000000000 ) ) ;
#161 = AXIS2_PLACEMENT_3D ( 'NONE', #85, #198, #142 ) ;
#162 = DIRECTION ( 'NONE',  ( 1.000000000000000000, 0.000000000000000000, -0.000000000000000000 ) ) ;
#163 = ORIENTED_EDGE ( 'NONE', *, *, #247, .T. ) ;
#164 = DIRECTION ( 'NONE',  ( -0.000000000000000000, -0.000000000000000000, -1.000000000000000000 ) ) ;
#165 = EDGE_LOOP ( 'NONE', ( #204, #220, #34, #241 ) ) ;
#166 = ADVANCED_FACE ( 'NONE', ( #248 ), #150, .T. ) ;
#167 = EDGE_LOOP ( 'NONE', ( #57, #199, #14, #147 ) ) ;
#168 = PERSON_AND_ORGANIZATION_ROLE ( 'design_supplier' ) ;
#169 = ORIENTED_EDGE ( 'NONE', *, *, #99, .F. ) ;
#170 = APPROVAL_STATUS ( 'not_yet_approved' ) ;
#171 = DIRECTION ( 'NONE',  ( 0.000000000000000000, 0.000000000000000000, 1.000000000000000000 ) ) ;
#172 = DATE_AND_TIME ( #151, #81 ) ;
#173 = CIRCLE ( 'NONE', #201, 2.100000000000000089 ) ;
#174 = PERSON_AND_ORGANIZATION ( #96, #42 ) ;
#175 = PERSON_AND_ORGANIZATION_ROLE ( 'design_owner' ) ;
#176 = APPROVAL_PERSON_ORGANIZATION ( #32, #20, #196 ) ;
#177 = EDGE_CURVE ( 'NONE', #75, #12, #45, .T. ) ;
#178 = FACE_OUTER_BOUND ( 'NONE', #15, .T. ) ;
#179 = DIRECTION ( 'NONE',  ( -0.000000000000000000, -0.000000000000000000, -1.000000000000000000 ) ) ;
#180 = CARTESIAN_POINT ( 'NONE',  ( 0.000000000000000000, 0.000000000000000000, 100.0000000000000000 ) ) ;
#181 = CARTESIAN_POINT ( 'NONE',  ( -2.100000000000000089, 0.000000000000000000, 100.0000000000000000 ) ) ;
#182 = ORIENTED_EDGE ( 'NONE', *, *, #122, .F. ) ;
#183 = CC_DESIGN_APPROVAL ( #218, ( #6 ) ) ;
#184 = EDGE_LOOP ( 'NONE', ( #202, #89, #223, #109 ) ) ;
#185 = ORIENTED_EDGE ( 'NONE', *, *, #22, .F. ) ;
#186 = MECHANICAL_CONTEXT ( 'NONE', #207, 'mechanical' ) ;
#187 = DATE_TIME_ROLE ( 'creation_date' ) ;
#188 = PERSON_AND_ORGANIZATION ( #96, #42 ) ;
#189 = AXIS2_PLACEMENT_3D ( 'NONE', #180, #179, #145 ) ;
#190 = PERSON_AND_ORGANIZATION ( #96, #42 ) ;
#191 = AXIS2_PLACEMENT_3D ( 'NONE', #66, #52, #28 ) ;
#192 = PLANE ( 'NONE',  #30 ) ;
#193 = DIRECTION ( 'NONE',  ( -0.000000000000000000, -0.000000000000000000, -1.000000000000000000 ) ) ;
#194 = CIRCLE ( 'NONE', #13, 4.000000000000000000 ) ;
#195 = DATE_AND_TIME ( #49, #56 ) ;
#196 = APPROVAL_ROLE ( '' ) ;
#197 = DIRECTION ( 'NONE',  ( 1.000000000000000000, 0.000000000000000000, -0.000000000000000000 ) ) ;
#198 = DIRECTION ( 'NONE',  ( 0.000000000000000000, 0.000000000000000000, 1.000000000000000000 ) ) ;
#199 = ORIENTED_EDGE ( 'NONE', *, *, #177, .F. ) ;
#200 = ORIENTED_EDGE ( 'NONE', *, *, #18, .T. ) ;
#201 = AXIS2_PLACEMENT_3D ( 'NONE', #214, #53, #159 ) ;
#202 = ORIENTED_EDGE ( 'NONE', *, *, #247, .F. ) ;
#203 = LOCAL_TIME ( 13, 37, 38.00000000000000000, #29 ) ;
#204 = ORIENTED_EDGE ( 'NONE', *, *, #227, .F. ) ;
#205 = APPROVAL_STATUS ( 'not_yet_approved' ) ;
#206 = DATE_AND_TIME ( #233, #203 ) ;
#207 = APPLICATION_CONTEXT ( 'configuration controlled 3d designs of mechanical parts and assemblies' ) ;
#208 = APPROVAL_DATE_TIME ( #206, #20 ) ;
#209 = CC_DESIGN_DATE_AND_TIME_ASSIGNMENT ( #172, #187, ( #6 ) ) ;
#210 = CARTESIAN_POINT ( 'NONE',  ( -2.100000000000000089, 0.000000000000000000, 100.0000000000000000 ) ) ;
#211 = PRODUCT_DEFINITION_FORMATION_WITH_SPECIFIED_SOURCE ( 'LIBOVOLNÝ', '', #106, .NOT_KNOWN. ) ;
#212 = COORDINATED_UNIVERSAL_TIME_OFFSET ( 1, 0, .AHEAD. ) ;
#213 = ADVANCED_FACE ( 'NONE', ( #78, #60 ), #105, .T. ) ;
#214 = CARTESIAN_POINT ( 'NONE',  ( 0.000000000000000000, 0.000000000000000000, 3.000000000000000000 ) ) ;
#215 = ADVANCED_BREP_SHAPE_REPRESENTATION ( 'af98', ( #77, #116 ), #219 ) ;
#216 =( NAMED_UNIT ( * ) PLANE_ANGLE_UNIT ( ) SI_UNIT ( $, .RADIAN. ) );
#217 = ORIENTED_EDGE ( 'NONE', *, *, #18, .F. ) ;
#218 = APPROVAL ( #170, 'NEURÈENÝ' ) ;
#219 =( GEOMETRIC_REPRESENTATION_CONTEXT ( 3 ) GLOBAL_UNCERTAINTY_ASSIGNED_CONTEXT ( ( #251 ) ) GLOBAL_UNIT_ASSIGNED_CONTEXT ( ( #62, #216, #40 ) ) REPRESENTATION_CONTEXT ( 'NONE', 'WORKASPACE' ) );
#220 = ORIENTED_EDGE ( 'NONE', *, *, #64, .F. ) ;
#221 = EDGE_CURVE ( 'NONE', #12, #75, #194, .T. ) ;
#222 = DIRECTION ( 'NONE',  ( 0.000000000000000000, 0.000000000000000000, 1.000000000000000000 ) ) ;
#223 = ORIENTED_EDGE ( 'NONE', *, *, #22, .T. ) ;
#224 = APPROVAL_DATE_TIME ( #229, #218 ) ;
#225 = APPLICATION_PROTOCOL_DEFINITION ( 'international standard', 'config_control_design', 1994, #207 ) ;
#226 = DIRECTION ( 'NONE',  ( 1.000000000000000000, 0.000000000000000000, 0.000000000000000000 ) ) ;
#227 = EDGE_CURVE ( 'NONE', #37, #131, #36, .T. ) ;
#228 = COORDINATED_UNIVERSAL_TIME_OFFSET ( 1, 0, .AHEAD. ) ;
#229 = DATE_AND_TIME ( #250, #48 ) ;
#230 = CARTESIAN_POINT ( 'NONE',  ( 0.000000000000000000, 0.000000000000000000, 0.000000000000000000 ) ) ;
#231 = CLOSED_SHELL ( 'NONE', ( #82, #135, #88, #213, #249, #5, #166 ) ) ;
#232 = AXIS2_PLACEMENT_3D ( 'NONE', #11, #87, #162 ) ;
#233 = CALENDAR_DATE ( 2023, 12, 2 ) ;
#234 = DIRECTION ( 'NONE',  ( 0.000000000000000000, 0.000000000000000000, 1.000000000000000000 ) ) ;
#235 = VECTOR ( 'NONE', #86, 1000.000000000000000 ) ;
#236 = CC_DESIGN_SECURITY_CLASSIFICATION ( #38, ( #211 ) ) ;
#237 = DIRECTION ( 'NONE',  ( -0.000000000000000000, -0.000000000000000000, -1.000000000000000000 ) ) ;
#238 = CARTESIAN_POINT ( 'NONE',  ( 2.100000000000000089, 2.571758278209441464E-16, 3.000000000000000000 ) ) ;
#239 = CARTESIAN_POINT ( 'NONE',  ( -2.100000000000000089, 0.000000000000000000, 3.000000000000000000 ) ) ;
#240 = CIRCLE ( 'NONE', #246, 4.000000000000000000 ) ;
#241 = ORIENTED_EDGE ( 'NONE', *, *, #99, .T. ) ;
#242 = ORIENTED_EDGE ( 'NONE', *, *, #156, .F. ) ;
#243 = CYLINDRICAL_SURFACE ( 'NONE', #23, 2.100000000000000089 ) ;
#244 = APPROVAL ( #205, 'NEURÈENÝ' ) ;
#245 = FACE_OUTER_BOUND ( 'NONE', #165, .T. ) ;
#246 = AXIS2_PLACEMENT_3D ( 'NONE', #73, #234, #160 ) ;
#247 = EDGE_CURVE ( 'NONE', #37, #70, #21, .T. ) ;
#248 = FACE_OUTER_BOUND ( 'NONE', #91, .T. ) ;
#249 = ADVANCED_FACE ( 'NONE', ( #118 ), #192, .F. ) ;
#250 = CALENDAR_DATE ( 2023, 12, 2 ) ;
#251 = UNCERTAINTY_MEASURE_WITH_UNIT (LENGTH_MEASURE( 1.000000000000000082E-05 ), #62, 'distance_accuracy_value', 'NONE');
#252 = CARTESIAN_POINT ( 'NONE',  ( 0.000000000000000000, 0.000000000000000000, 3.000000000000000000 ) ) ;
#253 = PERSON_AND_ORGANIZATION_ROLE ( 'creator' ) ;
#254 = DIRECTION ( 'NONE',  ( 1.000000000000000000, 0.000000000000000000, 0.000000000000000000 ) ) ;
#255 = CALENDAR_DATE ( 2023, 12, 2 ) ;
ENDSEC;
END-ISO-10303-21;
