ISO-10303-21;
HEADER;
FILE_DESCRIPTION (( 'STEP AP203' ),
    '1' );
FILE_NAME ('124b.STEP',
    '2022-10-04T14:15:24',
    ( '' ),
    ( '' ),
    'SwSTEP 2.0',
    'SolidWorks 2019',
    '' );
FILE_SCHEMA (( 'CONFIG_CONTROL_DESIGN' ));
ENDSEC;

DATA;
#1 = AXIS2_PLACEMENT_3D ( 'NONE', #57, #155, #278 ) ;
#2 =( LENGTH_UNIT ( ) NAMED_UNIT ( * ) SI_UNIT ( .MILLI., .METRE. ) );
#3 = APPROVAL_ROLE ( '' ) ;
#4 = ORIENTED_EDGE ( 'NONE', *, *, #267, .T. ) ;
#5 = PERSON_AND_ORGANIZATION ( #19, #68 ) ;
#6 = ORIENTED_EDGE ( 'NONE', *, *, #123, .T. ) ;
#7 = CC_DESIGN_DATE_AND_TIME_ASSIGNMENT ( #288, #140, ( #58 ) ) ;
#8 = DATE_AND_TIME ( #244, #243 ) ;
#9 = VERTEX_POINT ( 'NONE', #224 ) ;
#10 = DATE_AND_TIME ( #169, #260 ) ;
#11 = CC_DESIGN_PERSON_AND_ORGANIZATION_ASSIGNMENT ( #239, #104, ( #58 ) ) ;
#12 = ORIENTED_EDGE ( 'NONE', *, *, #166, .T. ) ;
#13 = CARTESIAN_POINT ( 'NONE',  ( 0.000000000000000000, 0.000000000000000000, 1.700000000000007061 ) ) ;
#14 = DIRECTION ( 'NONE',  ( 1.224646799147353207E-16, 1.000000000000000000, -0.000000000000000000 ) ) ;
#15 = DIRECTION ( 'NONE',  ( 1.000000000000000000, 0.000000000000000000, 0.000000000000000000 ) ) ;
#16 = DIRECTION ( 'NONE',  ( 1.000000000000000000, 0.000000000000000000, 0.000000000000000000 ) ) ;
#17 = DIRECTION ( 'NONE',  ( 1.000000000000000000, 0.000000000000000000, 0.000000000000000000 ) ) ;
#18 = CARTESIAN_POINT ( 'NONE',  ( 0.9499999999999999556, 1.163414459189985682E-16, 88.50000000000000000 ) ) ;
#19 = PERSON ( 'NEURÈENÝ', 'NEURÈENÝ', 'NEURÈENÝ', ('NEURÈENÝ'), ('NEURÈENÝ'), ('NEURÈENÝ') ) ;
#20 = CARTESIAN_POINT ( 'NONE',  ( 0.000000000000000000, 0.000000000000000000, 1.500000000000000000 ) ) ;
#21 = DIRECTION ( 'NONE',  ( 1.000000000000000000, 0.000000000000000000, 0.000000000000000000 ) ) ;
#22 = FACE_OUTER_BOUND ( 'NONE', #52, .T. ) ;
#23 = DATE_AND_TIME ( #214, #299 ) ;
#24 = ORIENTED_EDGE ( 'NONE', *, *, #159, .F. ) ;
#25 = ADVANCED_FACE ( 'NONE', ( #296 ), #82, .F. ) ;
#26 = DESIGN_CONTEXT ( 'detailed design', #106, 'design' ) ;
#27 = APPROVAL_DATE_TIME ( #23, #262 ) ;
#28 = AXIS2_PLACEMENT_3D ( 'NONE', #173, #203, #153 ) ;
#29 = ORIENTED_EDGE ( 'NONE', *, *, #159, .T. ) ;
#30 = CC_DESIGN_PERSON_AND_ORGANIZATION_ASSIGNMENT ( #168, #139, ( #118 ) ) ;
#31 = PERSON_AND_ORGANIZATION ( #19, #68 ) ;
#32 = ORIENTED_EDGE ( 'NONE', *, *, #180, .T. ) ;
#33 = CIRCLE ( 'NONE', #205, 1.149999999999999911 ) ;
#34 = DIRECTION ( 'NONE',  ( 0.000000000000000000, 0.000000000000000000, 1.000000000000000000 ) ) ;
#35 = CIRCLE ( 'NONE', #283, 2.000000000000000000 ) ;
#36 = CARTESIAN_POINT ( 'NONE',  ( 2.000000000000000000, 2.449293598294706414E-16, 1.500000000000000000 ) ) ;
#37 = DIRECTION ( 'NONE',  ( 0.000000000000000000, 0.000000000000000000, 1.000000000000000000 ) ) ;
#38 = CC_DESIGN_PERSON_AND_ORGANIZATION_ASSIGNMENT ( #5, #71, ( #232 ) ) ;
#39 = EDGE_LOOP ( 'NONE', ( #294, #246 ) ) ;
#40 = CIRCLE ( 'NONE', #98, 0.9499999999999999556 ) ;
#41 = FACE_OUTER_BOUND ( 'NONE', #292, .T. ) ;
#42 = CC_DESIGN_DATE_AND_TIME_ASSIGNMENT ( #8, #195, ( #232 ) ) ;
#43 = DIRECTION ( 'NONE',  ( 0.000000000000000000, 0.000000000000000000, 1.000000000000000000 ) ) ;
#44 = CARTESIAN_POINT ( 'NONE',  ( 0.9499999999999999556, 1.163414459189985682E-16, 88.50000000000000000 ) ) ;
#45 = EDGE_CURVE ( 'NONE', #130, #9, #201, .T. ) ;
#46 = CARTESIAN_POINT ( 'NONE',  ( 0.000000000000000000, 0.000000000000000000, 1.500000000000000000 ) ) ;
#47 = APPLICATION_PROTOCOL_DEFINITION ( 'international standard', 'config_control_design', 1994, #106 ) ;
#48 = CALENDAR_DATE ( 2022, 4, 10 ) ;
#49 = APPROVAL_STATUS ( 'not_yet_approved' ) ;
#50 = ORIENTED_EDGE ( 'NONE', *, *, #166, .F. ) ;
#51 = COORDINATED_UNIVERSAL_TIME_OFFSET ( 1, 0, .AHEAD. ) ;
#52 = EDGE_LOOP ( 'NONE', ( #245, #240, #196, #24 ) ) ;
#53 = EDGE_CURVE ( 'NONE', #194, #270, #40, .T. ) ;
#54 = AXIS2_PLACEMENT_3D ( 'NONE', #279, #37, #16 ) ;
#55 = PERSON_AND_ORGANIZATION ( #19, #68 ) ;
#56 = CC_DESIGN_APPROVAL ( #226, ( #58 ) ) ;
#57 = CARTESIAN_POINT ( 'NONE',  ( 0.000000000000000000, 0.000000000000000000, 88.50000000000000000 ) ) ;
#58 = PRODUCT_DEFINITION ( 'NEZNÁMÝ', '', #228, #26 ) ;
#59 = CARTESIAN_POINT ( 'NONE',  ( 0.000000000000000000, 0.000000000000000000, 1.700000000000007061 ) ) ;
#60 = AXIS2_PLACEMENT_3D ( 'NONE', #161, #117, #303 ) ;
#61 = CARTESIAN_POINT ( 'NONE',  ( -2.000000000000000000, 0.000000000000000000, 1.500000000000000000 ) ) ;
#62 = DIRECTION ( 'NONE',  ( 0.000000000000000000, 0.000000000000000000, 1.000000000000000000 ) ) ;
#63 = ADVANCED_FACE ( 'NONE', ( #41 ), #163, .F. ) ;
#64 = FACE_BOUND ( 'NONE', #101, .T. ) ;
#65 = FACE_OUTER_BOUND ( 'NONE', #39, .T. ) ;
#66 = DIRECTION ( 'NONE',  ( 0.000000000000000000, 0.000000000000000000, 1.000000000000000000 ) ) ;
#67 = AXIS2_PLACEMENT_3D ( 'NONE', #273, #248, #128 ) ;
#68 = ORGANIZATION ( 'NEURÈENÝ', 'NEURÈENÝ', '' ) ;
#69 = LINE ( 'NONE', #18, #202 ) ;
#70 = DIRECTION ( 'NONE',  ( 1.000000000000000000, 0.000000000000000000, 0.000000000000000000 ) ) ;
#71 = PERSON_AND_ORGANIZATION_ROLE ( 'classification_officer' ) ;
#72 = PERSON_AND_ORGANIZATION ( #19, #68 ) ;
#73 = ORIENTED_EDGE ( 'NONE', *, *, #137, .T. ) ;
#74 = APPROVAL_STATUS ( 'not_yet_approved' ) ;
#75 = ORIENTED_EDGE ( 'NONE', *, *, #53, .T. ) ;
#76 = COORDINATED_UNIVERSAL_TIME_OFFSET ( 1, 0, .AHEAD. ) ;
#77 = ORIENTED_EDGE ( 'NONE', *, *, #247, .T. ) ;
#78 = PERSON_AND_ORGANIZATION_ROLE ( 'design_supplier' ) ;
#79 = VERTEX_POINT ( 'NONE', #227 ) ;
#80 = PLANE ( 'NONE',  #67 ) ;
#81 = EDGE_CURVE ( 'NONE', #9, #167, #181, .T. ) ;
#82 = PLANE ( 'NONE',  #88 ) ;
#83 = CIRCLE ( 'NONE', #259, 0.9499999999999999556 ) ;
#84 = DIRECTION ( 'NONE',  ( -0.000000000000000000, -0.000000000000000000, -1.000000000000000000 ) ) ;
#85 = DIRECTION ( 'NONE',  ( 0.000000000000000000, 0.000000000000000000, 1.000000000000000000 ) ) ;
#86 = ADVANCED_FACE ( 'NONE', ( #251 ), #127, .F. ) ;
#87 = DIRECTION ( 'NONE',  ( 1.000000000000000000, 0.000000000000000000, 0.000000000000000000 ) ) ;
#88 = AXIS2_PLACEMENT_3D ( 'NONE', #133, #62, #174 ) ;
#89 = CARTESIAN_POINT ( 'NONE',  ( 0.000000000000000000, 0.000000000000000000, 1.500000000000000000 ) ) ;
#90 =( NAMED_UNIT ( * ) PLANE_ANGLE_UNIT ( ) SI_UNIT ( $, .RADIAN. ) );
#91 = DIRECTION ( 'NONE',  ( -0.000000000000000000, -0.000000000000000000, -1.000000000000000000 ) ) ;
#92 = AXIS2_PLACEMENT_3D ( 'NONE', #129, #111, #15 ) ;
#93 = AXIS2_PLACEMENT_3D ( 'NONE', #135, #91, #119 ) ;
#94 = CC_DESIGN_APPROVAL ( #262, ( #228 ) ) ;
#95 = VERTEX_POINT ( 'NONE', #107 ) ;
#96 = COORDINATED_UNIVERSAL_TIME_OFFSET ( 1, 0, .AHEAD. ) ;
#97 = EDGE_LOOP ( 'NONE', ( #189, #32, #253, #50 ) ) ;
#98 = AXIS2_PLACEMENT_3D ( 'NONE', #13, #179, #274 ) ;
#99 = DIRECTION ( 'NONE',  ( 0.000000000000000000, 0.000000000000000000, 1.000000000000000000 ) ) ;
#100 = APPROVAL_PERSON_ORGANIZATION ( #144, #262, #3 ) ;
#101 = EDGE_LOOP ( 'NONE', ( #220, #73 ) ) ;
#102 = CALENDAR_DATE ( 2022, 4, 10 ) ;
#103 = EDGE_LOOP ( 'NONE', ( #216, #290, #29, #147 ) ) ;
#104 = PERSON_AND_ORGANIZATION_ROLE ( 'creator' ) ;
#105 = EDGE_LOOP ( 'NONE', ( #170, #141, #6, #221 ) ) ;
#106 = APPLICATION_CONTEXT ( 'configuration controlled 3d designs of mechanical parts and assemblies' ) ;
#107 = CARTESIAN_POINT ( 'NONE',  ( -2.000000000000000000, 0.000000000000000000, 1.500000000000000000 ) ) ;
#108 = DIRECTION ( 'NONE',  ( -0.000000000000000000, -0.000000000000000000, -1.000000000000000000 ) ) ;
#109 = CARTESIAN_POINT ( 'NONE',  ( -0.9499999999999999556, 0.000000000000000000, 88.50000000000000000 ) ) ;
#110 = CIRCLE ( 'NONE', #131, 0.9499999999999999556 ) ;
#111 = DIRECTION ( 'NONE',  ( 0.000000000000000000, 0.000000000000000000, 1.000000000000000000 ) ) ;
#112 = LOCAL_TIME ( 16, 15, 24.00000000000000000, #264 ) ;
#113 = DIRECTION ( 'NONE',  ( -0.000000000000000000, -0.000000000000000000, -1.000000000000000000 ) ) ;
#114 = DIRECTION ( 'NONE',  ( -0.000000000000000000, -0.000000000000000000, -1.000000000000000000 ) ) ;
#115 = APPROVAL_PERSON_ORGANIZATION ( #72, #226, #165 ) ;
#116 = DIRECTION ( 'NONE',  ( 1.000000000000000000, 0.000000000000000000, 0.000000000000000000 ) ) ;
#117 = DIRECTION ( 'NONE',  ( 0.000000000000000000, 0.000000000000000000, 1.000000000000000000 ) ) ;
#118 = PRODUCT ( '124b', '124b', '', ( #269 ) ) ;
#119 = DIRECTION ( 'NONE',  ( -1.000000000000000000, 0.000000000000000000, 0.000000000000000000 ) ) ;
#120 = VERTEX_POINT ( 'NONE', #109 ) ;
#121 = APPROVAL_ROLE ( '' ) ;
#122 = ORIENTED_EDGE ( 'NONE', *, *, #286, .F. ) ;
#123 = EDGE_CURVE ( 'NONE', #270, #194, #110, .T. ) ;
#124 = PERSON_AND_ORGANIZATION_ROLE ( 'creator' ) ;
#125 = VECTOR ( 'NONE', #282, 1000.000000000000000 ) ;
#126 = ORIENTED_EDGE ( 'NONE', *, *, #242, .T. ) ;
#127 = TOROIDAL_SURFACE ( 'NONE', #92, 1.149999999999999911, 0.2000000000000000111 ) ;
#128 = DIRECTION ( 'NONE',  ( 1.000000000000000000, 0.000000000000000000, -0.000000000000000000 ) ) ;
#129 = CARTESIAN_POINT ( 'NONE',  ( 0.000000000000000000, 0.000000000000000000, 1.700000000000007061 ) ) ;
#130 = VERTEX_POINT ( 'NONE', #301 ) ;
#131 = AXIS2_PLACEMENT_3D ( 'NONE', #200, #255, #17 ) ;
#132 = AXIS2_PLACEMENT_3D ( 'NONE', #233, #99, #215 ) ;
#133 = CARTESIAN_POINT ( 'NONE',  ( 0.000000000000000000, 0.000000000000000000, 0.000000000000000000 ) ) ;
#134 = LINE ( 'NONE', #157, #125 ) ;
#135 = CARTESIAN_POINT ( 'NONE',  ( 0.000000000000000000, 0.000000000000000000, 88.50000000000000000 ) ) ;
#136 = CIRCLE ( 'NONE', #176, 0.2000000000000000944 ) ;
#137 = EDGE_CURVE ( 'NONE', #79, #150, #33, .T. ) ;
#138 = CARTESIAN_POINT ( 'NONE',  ( 0.000000000000000000, 0.000000000000000000, 1.500000000000000000 ) ) ;
#139 = PERSON_AND_ORGANIZATION_ROLE ( 'design_owner' ) ;
#140 = DATE_TIME_ROLE ( 'creation_date' ) ;
#141 = ORIENTED_EDGE ( 'NONE', *, *, #210, .T. ) ;
#142 = ORIENTED_EDGE ( 'NONE', *, *, #180, .F. ) ;
#143 = EDGE_CURVE ( 'NONE', #197, #120, #83, .T. ) ;
#144 = PERSON_AND_ORGANIZATION ( #19, #68 ) ;
#145 = CIRCLE ( 'NONE', #225, 2.000000000000000000 ) ;
#146 = SECURITY_CLASSIFICATION_LEVEL ( 'unclassified' ) ;
#147 = ORIENTED_EDGE ( 'NONE', *, *, #286, .T. ) ;
#148 = CC_DESIGN_PERSON_AND_ORGANIZATION_ASSIGNMENT ( #55, #124, ( #228 ) ) ;
#149 = ORIENTED_EDGE ( 'NONE', *, *, #137, .F. ) ;
#150 = VERTEX_POINT ( 'NONE', #175 ) ;
#151 = DIRECTION ( 'NONE',  ( 1.000000000000000000, 0.000000000000000000, 0.000000000000000000 ) ) ;
#152 = CIRCLE ( 'NONE', #217, 0.9499999999999999556 ) ;
#153 = DIRECTION ( 'NONE',  ( 0.000000000000000000, 0.000000000000000000, -1.000000000000000000 ) ) ;
#154 = ADVANCED_FACE ( 'NONE', ( #277 ), #222, .T. ) ;
#155 = DIRECTION ( 'NONE',  ( -0.000000000000000000, -0.000000000000000000, -1.000000000000000000 ) ) ;
#156 = FACE_OUTER_BOUND ( 'NONE', #289, .T. ) ;
#157 = CARTESIAN_POINT ( 'NONE',  ( -0.9499999999999999556, 0.000000000000000000, 88.50000000000000000 ) ) ;
#158 = DIRECTION ( 'NONE',  ( 1.000000000000000000, 0.000000000000000000, 0.000000000000000000 ) ) ;
#159 = EDGE_CURVE ( 'NONE', #95, #167, #178, .T. ) ;
#160 = DIRECTION ( 'NONE',  ( 0.000000000000000000, 0.000000000000000000, 1.000000000000000000 ) ) ;
#161 = CARTESIAN_POINT ( 'NONE',  ( 0.000000000000000000, 0.000000000000000000, 88.50000000000000000 ) ) ;
#162 = COORDINATED_UNIVERSAL_TIME_OFFSET ( 1, 0, .AHEAD. ) ;
#163 = TOROIDAL_SURFACE ( 'NONE', #275, 1.149999999999999911, 0.2000000000000000111 ) ;
#164 = ORIENTED_EDGE ( 'NONE', *, *, #210, .F. ) ;
#165 = APPROVAL_ROLE ( '' ) ;
#166 = EDGE_CURVE ( 'NONE', #270, #150, #305, .T. ) ;
#167 = VERTEX_POINT ( 'NONE', #302 ) ;
#168 = PERSON_AND_ORGANIZATION ( #19, #68 ) ;
#169 = CALENDAR_DATE ( 2022, 4, 10 ) ;
#170 = ORIENTED_EDGE ( 'NONE', *, *, #143, .F. ) ;
#171 = ADVANCED_FACE ( 'NONE', ( #64, #156 ), #80, .T. ) ;
#172 = ORIENTED_EDGE ( 'NONE', *, *, #123, .F. ) ;
#173 = CARTESIAN_POINT ( 'NONE',  ( 1.149999999999999911, 0.000000000000000000, 1.700000000000007061 ) ) ;
#174 = DIRECTION ( 'NONE',  ( 1.000000000000000000, 0.000000000000000000, -0.000000000000000000 ) ) ;
#175 = CARTESIAN_POINT ( 'NONE',  ( 1.149999999999999911, 0.000000000000000000, 1.500000000000003553 ) ) ;
#176 = AXIS2_PLACEMENT_3D ( 'NONE', #199, #14, #258 ) ;
#177 = APPLICATION_CONTEXT ( 'configuration controlled 3d designs of mechanical parts and assemblies' ) ;
#178 = LINE ( 'NONE', #61, #298 ) ;
#179 = DIRECTION ( 'NONE',  ( 0.000000000000000000, 0.000000000000000000, 1.000000000000000000 ) ) ;
#180 = EDGE_CURVE ( 'NONE', #194, #79, #136, .T. ) ;
#181 = CIRCLE ( 'NONE', #54, 2.000000000000000000 ) ;
#182 = DIRECTION ( 'NONE',  ( -0.000000000000000000, -0.000000000000000000, -1.000000000000000000 ) ) ;
#183 = CYLINDRICAL_SURFACE ( 'NONE', #193, 2.000000000000000000 ) ;
#184 = CARTESIAN_POINT ( 'NONE',  ( 0.000000000000000000, 0.000000000000000000, 88.50000000000000000 ) ) ;
#185 = EDGE_CURVE ( 'NONE', #120, #197, #152, .T. ) ;
#186 =( GEOMETRIC_REPRESENTATION_CONTEXT ( 3 ) GLOBAL_UNCERTAINTY_ASSIGNED_CONTEXT ( ( #268 ) ) GLOBAL_UNIT_ASSIGNED_CONTEXT ( ( #2, #90, #281 ) ) REPRESENTATION_CONTEXT ( 'NONE', 'WORKASPACE' ) );
#187 = PLANE ( 'NONE',  #60 ) ;
#188 = PERSON_AND_ORGANIZATION ( #19, #68 ) ;
#189 = ORIENTED_EDGE ( 'NONE', *, *, #53, .F. ) ;
#190 = ADVANCED_FACE ( 'NONE', ( #280 ), #183, .T. ) ;
#191 = DATE_AND_TIME ( #102, #112 ) ;
#192 = ORIENTED_EDGE ( 'NONE', *, *, #81, .F. ) ;
#193 = AXIS2_PLACEMENT_3D ( 'NONE', #46, #229, #306 ) ;
#194 = VERTEX_POINT ( 'NONE', #284 ) ;
#195 = DATE_TIME_ROLE ( 'classification_date' ) ;
#196 = ORIENTED_EDGE ( 'NONE', *, *, #81, .T. ) ;
#197 = VERTEX_POINT ( 'NONE', #44 ) ;
#198 = DIRECTION ( 'NONE',  ( 1.000000000000000000, 0.000000000000000000, 0.000000000000000000 ) ) ;
#199 = CARTESIAN_POINT ( 'NONE',  ( -1.149999999999999911, 1.408343819019456028E-16, 1.700000000000007061 ) ) ;
#200 = CARTESIAN_POINT ( 'NONE',  ( 0.000000000000000000, 0.000000000000000000, 1.700000000000007061 ) ) ;
#201 = LINE ( 'NONE', #36, #236 ) ;
#202 = VECTOR ( 'NONE', #114, 1000.000000000000000 ) ;
#203 = DIRECTION ( 'NONE',  ( 0.000000000000000000, -1.000000000000000000, 0.000000000000000000 ) ) ;
#204 = CARTESIAN_POINT ( 'NONE',  ( 0.000000000000000000, 0.000000000000000000, 1.500000000000000000 ) ) ;
#205 = AXIS2_PLACEMENT_3D ( 'NONE', #297, #84, #87 ) ;
#206 = DIRECTION ( 'NONE',  ( 0.000000000000000000, 0.000000000000000000, 1.000000000000000000 ) ) ;
#207 = AXIS2_PLACEMENT_3D ( 'NONE', #20, #212, #21 ) ;
#208 = DIRECTION ( 'NONE',  ( -1.000000000000000000, 0.000000000000000000, 0.000000000000000000 ) ) ;
#209 = MANIFOLD_SOLID_BREP ( 'Zaoblit1', #231 ) ;
#210 = EDGE_CURVE ( 'NONE', #197, #270, #69, .T. ) ;
#211 = CARTESIAN_POINT ( 'NONE',  ( 0.9499999999999999556, 1.163414459189985682E-16, 1.700000000000007061 ) ) ;
#212 = DIRECTION ( 'NONE',  ( -0.000000000000000000, -0.000000000000000000, -1.000000000000000000 ) ) ;
#213 = AXIS2_PLACEMENT_3D ( 'NONE', #138, #66, #158 ) ;
#214 = CALENDAR_DATE ( 2022, 4, 10 ) ;
#215 = DIRECTION ( 'NONE',  ( 1.000000000000000000, 0.000000000000000000, 0.000000000000000000 ) ) ;
#216 = ORIENTED_EDGE ( 'NONE', *, *, #45, .F. ) ;
#217 = AXIS2_PLACEMENT_3D ( 'NONE', #184, #43, #70 ) ;
#218 = APPROVAL_STATUS ( 'not_yet_approved' ) ;
#219 = EDGE_LOOP ( 'NONE', ( #164, #238, #4, #75 ) ) ;
#220 = ORIENTED_EDGE ( 'NONE', *, *, #304, .T. ) ;
#221 = ORIENTED_EDGE ( 'NONE', *, *, #267, .F. ) ;
#222 = CYLINDRICAL_SURFACE ( 'NONE', #1, 0.9499999999999999556 ) ;
#223 = ADVANCED_FACE ( 'NONE', ( #22 ), #263, .T. ) ;
#224 = CARTESIAN_POINT ( 'NONE',  ( 2.000000000000000000, 2.449293598294706414E-16, 0.000000000000000000 ) ) ;
#225 = AXIS2_PLACEMENT_3D ( 'NONE', #261, #206, #235 ) ;
#226 = APPROVAL ( #74, 'NEURÈENÝ' ) ;
#227 = CARTESIAN_POINT ( 'NONE',  ( -1.149999999999999911, 1.408343819019456028E-16, 1.500000000000003553 ) ) ;
#228 = PRODUCT_DEFINITION_FORMATION_WITH_SPECIFIED_SOURCE ( 'LIBOVOLNÝ', '', #118, .NOT_KNOWN. ) ;
#229 = DIRECTION ( 'NONE',  ( -0.000000000000000000, -0.000000000000000000, -1.000000000000000000 ) ) ;
#230 = CYLINDRICAL_SURFACE ( 'NONE', #93, 0.9499999999999999556 ) ;
#231 = CLOSED_SHELL ( 'NONE', ( #86, #300, #223, #190, #171, #25, #154, #254, #63 ) ) ;
#232 = SECURITY_CLASSIFICATION ( '', '', #146 ) ;
#233 = CARTESIAN_POINT ( 'NONE',  ( 0.000000000000000000, 0.000000000000000000, 0.000000000000000000 ) ) ;
#234 = PRODUCT_DEFINITION_SHAPE ( 'NONE', 'NONE',  #58 ) ;
#235 = DIRECTION ( 'NONE',  ( 1.000000000000000000, 0.000000000000000000, 0.000000000000000000 ) ) ;
#236 = VECTOR ( 'NONE', #108, 1000.000000000000000 ) ;
#237 = APPROVAL_DATE_TIME ( #191, #271 ) ;
#238 = ORIENTED_EDGE ( 'NONE', *, *, #185, .F. ) ;
#239 = PERSON_AND_ORGANIZATION ( #19, #68 ) ;
#240 = ORIENTED_EDGE ( 'NONE', *, *, #45, .T. ) ;
#241 = AXIS2_PLACEMENT_3D ( 'NONE', #204, #182, #208 ) ;
#242 = EDGE_CURVE ( 'NONE', #95, #130, #35, .T. ) ;
#243 = LOCAL_TIME ( 16, 15, 24.00000000000000000, #96 ) ;
#244 = CALENDAR_DATE ( 2022, 4, 10 ) ;
#245 = ORIENTED_EDGE ( 'NONE', *, *, #247, .F. ) ;
#246 = ORIENTED_EDGE ( 'NONE', *, *, #143, .T. ) ;
#247 = EDGE_CURVE ( 'NONE', #130, #95, #250, .T. ) ;
#248 = DIRECTION ( 'NONE',  ( 0.000000000000000000, 0.000000000000000000, 1.000000000000000000 ) ) ;
#249 = ADVANCED_BREP_SHAPE_REPRESENTATION ( '124b', ( #209, #132 ), #186 ) ;
#250 = CIRCLE ( 'NONE', #213, 2.000000000000000000 ) ;
#251 = FACE_OUTER_BOUND ( 'NONE', #97, .T. ) ;
#252 = CC_DESIGN_PERSON_AND_ORGANIZATION_ASSIGNMENT ( #188, #78, ( #228 ) ) ;
#253 = ORIENTED_EDGE ( 'NONE', *, *, #304, .F. ) ;
#254 = ADVANCED_FACE ( 'NONE', ( #65 ), #187, .T. ) ;
#255 = DIRECTION ( 'NONE',  ( 0.000000000000000000, 0.000000000000000000, 1.000000000000000000 ) ) ;
#256 = CARTESIAN_POINT ( 'NONE',  ( 0.000000000000000000, 0.000000000000000000, 88.50000000000000000 ) ) ;
#257 = CIRCLE ( 'NONE', #207, 1.149999999999999911 ) ;
#258 = DIRECTION ( 'NONE',  ( -1.000000000000000000, 1.224646799147351975E-16, 0.000000000000000000 ) ) ;
#259 = AXIS2_PLACEMENT_3D ( 'NONE', #256, #85, #198 ) ;
#260 = LOCAL_TIME ( 16, 15, 24.00000000000000000, #76 ) ;
#261 = CARTESIAN_POINT ( 'NONE',  ( 0.000000000000000000, 0.000000000000000000, 0.000000000000000000 ) ) ;
#262 = APPROVAL ( #49, 'NEURÈENÝ' ) ;
#263 = CYLINDRICAL_SURFACE ( 'NONE', #241, 2.000000000000000000 ) ;
#264 = COORDINATED_UNIVERSAL_TIME_OFFSET ( 1, 0, .AHEAD. ) ;
#265 = APPROVAL_DATE_TIME ( #10, #226 ) ;
#266 = EDGE_LOOP ( 'NONE', ( #122, #192 ) ) ;
#267 = EDGE_CURVE ( 'NONE', #120, #194, #134, .T. ) ;
#268 = UNCERTAINTY_MEASURE_WITH_UNIT (LENGTH_MEASURE( 1.000000000000000082E-05 ), #2, 'distance_accuracy_value', 'NONE');
#269 = MECHANICAL_CONTEXT ( 'NONE', #177, 'mechanical' ) ;
#270 = VERTEX_POINT ( 'NONE', #211 ) ;
#271 = APPROVAL ( #218, 'NEURÈENÝ' ) ;
#272 = CC_DESIGN_SECURITY_CLASSIFICATION ( #232, ( #228 ) ) ;
#273 = CARTESIAN_POINT ( 'NONE',  ( 0.000000000000000000, 0.000000000000000000, 1.500000000000000000 ) ) ;
#274 = DIRECTION ( 'NONE',  ( 1.000000000000000000, 0.000000000000000000, 0.000000000000000000 ) ) ;
#275 = AXIS2_PLACEMENT_3D ( 'NONE', #59, #34, #151 ) ;
#276 = APPROVAL_PERSON_ORGANIZATION ( #31, #271, #121 ) ;
#277 = FACE_OUTER_BOUND ( 'NONE', #219, .T. ) ;
#278 = DIRECTION ( 'NONE',  ( -1.000000000000000000, 0.000000000000000000, 0.000000000000000000 ) ) ;
#279 = CARTESIAN_POINT ( 'NONE',  ( 0.000000000000000000, 0.000000000000000000, 0.000000000000000000 ) ) ;
#280 = FACE_OUTER_BOUND ( 'NONE', #103, .T. ) ;
#281 =( NAMED_UNIT ( * ) SI_UNIT ( $, .STERADIAN. ) SOLID_ANGLE_UNIT ( ) );
#282 = DIRECTION ( 'NONE',  ( -0.000000000000000000, -0.000000000000000000, -1.000000000000000000 ) ) ;
#283 = AXIS2_PLACEMENT_3D ( 'NONE', #89, #160, #116 ) ;
#284 = CARTESIAN_POINT ( 'NONE',  ( -0.9499999999999999556, 0.000000000000000000, 1.700000000000007061 ) ) ;
#285 = LOCAL_TIME ( 16, 15, 24.00000000000000000, #51 ) ;
#286 = EDGE_CURVE ( 'NONE', #167, #9, #145, .T. ) ;
#287 = APPLICATION_PROTOCOL_DEFINITION ( 'international standard', 'config_control_design', 1994, #177 ) ;
#288 = DATE_AND_TIME ( #48, #285 ) ;
#289 = EDGE_LOOP ( 'NONE', ( #126, #77 ) ) ;
#290 = ORIENTED_EDGE ( 'NONE', *, *, #242, .F. ) ;
#291 = CC_DESIGN_APPROVAL ( #271, ( #232 ) ) ;
#292 = EDGE_LOOP ( 'NONE', ( #142, #172, #12, #149 ) ) ;
#293 = SHAPE_DEFINITION_REPRESENTATION ( #234, #249 ) ;
#294 = ORIENTED_EDGE ( 'NONE', *, *, #185, .T. ) ;
#295 = PRODUCT_RELATED_PRODUCT_CATEGORY ( 'detail', '', ( #118 ) ) ;
#296 = FACE_OUTER_BOUND ( 'NONE', #266, .T. ) ;
#297 = CARTESIAN_POINT ( 'NONE',  ( 0.000000000000000000, 0.000000000000000000, 1.500000000000000000 ) ) ;
#298 = VECTOR ( 'NONE', #113, 1000.000000000000000 ) ;
#299 = LOCAL_TIME ( 16, 15, 24.00000000000000000, #162 ) ;
#300 = ADVANCED_FACE ( 'NONE', ( #307 ), #230, .T. ) ;
#301 = CARTESIAN_POINT ( 'NONE',  ( 2.000000000000000000, 2.449293598294706414E-16, 1.500000000000000000 ) ) ;
#302 = CARTESIAN_POINT ( 'NONE',  ( -2.000000000000000000, 0.000000000000000000, 0.000000000000000000 ) ) ;
#303 = DIRECTION ( 'NONE',  ( 1.000000000000000000, 0.000000000000000000, -0.000000000000000000 ) ) ;
#304 = EDGE_CURVE ( 'NONE', #150, #79, #257, .T. ) ;
#305 = CIRCLE ( 'NONE', #28, 0.2000000000000000944 ) ;
#306 = DIRECTION ( 'NONE',  ( -1.000000000000000000, 0.000000000000000000, 0.000000000000000000 ) ) ;
#307 = FACE_OUTER_BOUND ( 'NONE', #105, .T. ) ;
ENDSEC;
END-ISO-10303-21;
