ISO-10303-21;
HEADER;
FILE_DESCRIPTION (( 'STEP AP203' ),
    '1' );
FILE_NAME ('7b52.STEP',
    '2022-07-07T10:09:17',
    ( '' ),
    ( '' ),
    'SwSTEP 2.0',
    'SolidWorks 2019',
    '' );
FILE_SCHEMA (( 'CONFIG_CONTROL_DESIGN' ));
ENDSEC;

DATA;
#1 = PERSON_AND_ORGANIZATION_ROLE ( 'design_owner' ) ;
#2 = PERSON_AND_ORGANIZATION_ROLE ( 'creator' ) ;
#3 = ORIENTED_EDGE ( 'NONE', *, *, #247, .F. ) ;
#4 = PLANE ( 'NONE',  #89 ) ;
#5 = UNCERTAINTY_MEASURE_WITH_UNIT (LENGTH_MEASURE( 1.000000000000000082E-05 ), #63, 'distance_accuracy_value', 'NONE');
#6 = CARTESIAN_POINT ( 'NONE',  ( 0.000000000000000000, 0.000000000000000000, 5.000000000000000000 ) ) ;
#7 = DIRECTION ( 'NONE',  ( 0.000000000000000000, 0.000000000000000000, 1.000000000000000000 ) ) ;
#8 = EDGE_CURVE ( 'NONE', #169, #141, #234, .T. ) ;
#9 = AXIS2_PLACEMENT_3D ( 'NONE', #67, #273, #178 ) ;
#10 = APPLICATION_CONTEXT ( 'configuration controlled 3d designs of mechanical parts and assemblies' ) ;
#11 = DIRECTION ( 'NONE',  ( 1.000000000000000000, 0.000000000000000000, 0.000000000000000000 ) ) ;
#12 = EDGE_CURVE ( 'NONE', #287, #228, #106, .T. ) ;
#13 = CARTESIAN_POINT ( 'NONE',  ( -3.250000000000000444, 0.000000000000000000, 255.0000000000000000 ) ) ;
#14 = APPROVAL_PERSON_ORGANIZATION ( #210, #98, #231 ) ;
#15 = DIRECTION ( 'NONE',  ( -1.000000000000000000, 1.224646799147350742E-16, 0.000000000000000000 ) ) ;
#16 = DIRECTION ( 'NONE',  ( -0.000000000000000000, -0.000000000000000000, -1.000000000000000000 ) ) ;
#17 = ORIENTED_EDGE ( 'NONE', *, *, #76, .F. ) ;
#18 = DIRECTION ( 'NONE',  ( 0.000000000000000000, 0.000000000000000000, 1.000000000000000000 ) ) ;
#19 = EDGE_CURVE ( 'NONE', #54, #191, #276, .T. ) ;
#20 = ORIENTED_EDGE ( 'NONE', *, *, #56, .F. ) ;
#21 = DIRECTION ( 'NONE',  ( 1.000000000000000000, 0.000000000000000000, 0.000000000000000000 ) ) ;
#22 = AXIS2_PLACEMENT_3D ( 'NONE', #86, #227, #60 ) ;
#23 = CC_DESIGN_DATE_AND_TIME_ASSIGNMENT ( #182, #264, ( #278 ) ) ;
#24 = CALENDAR_DATE ( 2022, 7, 7 ) ;
#25 = APPROVAL_DATE_TIME ( #187, #98 ) ;
#26 = MECHANICAL_CONTEXT ( 'NONE', #10, 'mechanical' ) ;
#27 = APPLICATION_CONTEXT ( 'configuration controlled 3d designs of mechanical parts and assemblies' ) ;
#28 = CARTESIAN_POINT ( 'NONE',  ( 0.000000000000000000, 0.000000000000000000, 0.000000000000000000 ) ) ;
#29 = CC_DESIGN_PERSON_AND_ORGANIZATION_ASSIGNMENT ( #208, #1, ( #41 ) ) ;
#30 = CYLINDRICAL_SURFACE ( 'NONE', #130, 3.250000000000000444 ) ;
#31 = ORIENTED_EDGE ( 'NONE', *, *, #12, .T. ) ;
#32 = ADVANCED_FACE ( 'NONE', ( #167 ), #30, .T. ) ;
#33 = DIRECTION ( 'NONE',  ( 1.000000000000000000, 0.000000000000000000, 0.000000000000000000 ) ) ;
#34 = DIRECTION ( 'NONE',  ( 1.000000000000000000, 0.000000000000000000, 0.000000000000000000 ) ) ;
#35 = FACE_OUTER_BOUND ( 'NONE', #53, .T. ) ;
#36 = CARTESIAN_POINT ( 'NONE',  ( 0.000000000000000000, 0.000000000000000000, 5.000000000000000000 ) ) ;
#37 = FACE_OUTER_BOUND ( 'NONE', #97, .T. ) ;
#38 = ORIENTED_EDGE ( 'NONE', *, *, #261, .F. ) ;
#39 = CYLINDRICAL_SURFACE ( 'NONE', #66, 6.000000000000000888 ) ;
#40 = APPROVAL ( #74, 'NEURÈENÝ' ) ;
#41 = PRODUCT ( '7b52', '7b52', '', ( #26 ) ) ;
#42 = ORIENTED_EDGE ( 'NONE', *, *, #19, .F. ) ;
#43 = CARTESIAN_POINT ( 'NONE',  ( 0.000000000000000000, 0.000000000000000000, 5.200000000000009948 ) ) ;
#44 = ORIENTED_EDGE ( 'NONE', *, *, #267, .T. ) ;
#45 = DATE_AND_TIME ( #24, #195 ) ;
#46 = APPROVAL_PERSON_ORGANIZATION ( #164, #40, #120 ) ;
#47 = EDGE_CURVE ( 'NONE', #243, #137, #113, .T. ) ;
#48 = CALENDAR_DATE ( 2022, 7, 7 ) ;
#49 = APPLICATION_PROTOCOL_DEFINITION ( 'international standard', 'config_control_design', 1994, #10 ) ;
#50 = CIRCLE ( 'NONE', #245, 3.450000000000000178 ) ;
#51 = APPROVAL_DATE_TIME ( #144, #40 ) ;
#52 = PERSON_AND_ORGANIZATION ( #129, #215 ) ;
#53 = EDGE_LOOP ( 'NONE', ( #252, #226 ) ) ;
#54 = VERTEX_POINT ( 'NONE', #59 ) ;
#55 = CARTESIAN_POINT ( 'NONE',  ( 0.000000000000000000, 0.000000000000000000, 255.0000000000000000 ) ) ;
#56 = EDGE_CURVE ( 'NONE', #197, #191, #50, .T. ) ;
#57 = DIRECTION ( 'NONE',  ( 1.000000000000000000, 0.000000000000000000, -0.000000000000000000 ) ) ;
#58 = ORIENTED_EDGE ( 'NONE', *, *, #19, .T. ) ;
#59 = CARTESIAN_POINT ( 'NONE',  ( 3.250000000000000444, 3.980102097228898231E-16, 5.200000000000009948 ) ) ;
#60 = DIRECTION ( 'NONE',  ( -1.000000000000000000, 0.000000000000000000, 0.000000000000000000 ) ) ;
#61 = CC_DESIGN_PERSON_AND_ORGANIZATION_ASSIGNMENT ( #142, #146, ( #185 ) ) ;
#62 = DIRECTION ( 'NONE',  ( -0.000000000000000000, -0.000000000000000000, -1.000000000000000000 ) ) ;
#63 =( LENGTH_UNIT ( ) NAMED_UNIT ( * ) SI_UNIT ( .MILLI., .METRE. ) );
#64 = EDGE_CURVE ( 'NONE', #141, #169, #168, .T. ) ;
#65 = DIRECTION ( 'NONE',  ( 1.000000000000000000, 0.000000000000000000, 0.000000000000000000 ) ) ;
#66 = AXIS2_PLACEMENT_3D ( 'NONE', #92, #248, #119 ) ;
#67 = CARTESIAN_POINT ( 'NONE',  ( 0.000000000000000000, 0.000000000000000000, 5.200000000000009948 ) ) ;
#68 = ORIENTED_EDGE ( 'NONE', *, *, #76, .T. ) ;
#69 = PERSON_AND_ORGANIZATION ( #129, #215 ) ;
#70 = ADVANCED_FACE ( 'NONE', ( #220 ), #175, .F. ) ;
#71 = AXIS2_PLACEMENT_3D ( 'NONE', #150, #151, #192 ) ;
#72 = CALENDAR_DATE ( 2022, 7, 7 ) ;
#73 = LOCAL_TIME ( 12, 9, 17.00000000000000000, #260 ) ;
#74 = APPROVAL_STATUS ( 'not_yet_approved' ) ;
#75 = ORIENTED_EDGE ( 'NONE', *, *, #8, .T. ) ;
#76 = EDGE_CURVE ( 'NONE', #213, #54, #290, .T. ) ;
#77 = COORDINATED_UNIVERSAL_TIME_OFFSET ( 1, 0, .AHEAD. ) ;
#78 = LOCAL_TIME ( 12, 9, 17.00000000000000000, #233 ) ;
#79 = CARTESIAN_POINT ( 'NONE',  ( 0.000000000000000000, 0.000000000000000000, 255.0000000000000000 ) ) ;
#80 = CC_DESIGN_PERSON_AND_ORGANIZATION_ASSIGNMENT ( #95, #206, ( #278 ) ) ;
#81 = ORIENTED_EDGE ( 'NONE', *, *, #297, .T. ) ;
#82 = VECTOR ( 'NONE', #90, 1000.000000000000000 ) ;
#83 = AXIS2_PLACEMENT_3D ( 'NONE', #250, #159, #65 ) ;
#84 = DIRECTION ( 'NONE',  ( 1.000000000000000000, 0.000000000000000000, -0.000000000000000000 ) ) ;
#85 = DIRECTION ( 'NONE',  ( 1.000000000000000000, 0.000000000000000000, 0.000000000000000000 ) ) ;
#86 = CARTESIAN_POINT ( 'NONE',  ( 0.000000000000000000, 0.000000000000000000, 255.0000000000000000 ) ) ;
#87 = AXIS2_PLACEMENT_3D ( 'NONE', #131, #269, #222 ) ;
#88 = CC_DESIGN_APPROVAL ( #40, ( #284 ) ) ;
#89 = AXIS2_PLACEMENT_3D ( 'NONE', #104, #133, #242 ) ;
#90 = DIRECTION ( 'NONE',  ( -0.000000000000000000, -0.000000000000000000, -1.000000000000000000 ) ) ;
#91 = ADVANCED_FACE ( 'NONE', ( #35 ), #196, .F. ) ;
#92 = CARTESIAN_POINT ( 'NONE',  ( 0.000000000000000000, 0.000000000000000000, 5.000000000000000000 ) ) ;
#93 = EDGE_LOOP ( 'NONE', ( #266, #139, #282, #161 ) ) ;
#94 = CARTESIAN_POINT ( 'NONE',  ( 3.250000000000000444, 3.980102097228898231E-16, 255.0000000000000000 ) ) ;
#95 = PERSON_AND_ORGANIZATION ( #129, #215 ) ;
#96 = DATE_AND_TIME ( #72, #170 ) ;
#97 = EDGE_LOOP ( 'NONE', ( #211, #179, #279, #31 ) ) ;
#98 = APPROVAL ( #205, 'NEURÈENÝ' ) ;
#99 = DIRECTION ( 'NONE',  ( 0.000000000000000000, 0.000000000000000000, 1.000000000000000000 ) ) ;
#100 = ORIENTED_EDGE ( 'NONE', *, *, #261, .T. ) ;
#101 = EDGE_LOOP ( 'NONE', ( #246, #124, #257, #255 ) ) ;
#102 = CC_DESIGN_APPROVAL ( #98, ( #185 ) ) ;
#103 = CC_DESIGN_DATE_AND_TIME_ASSIGNMENT ( #45, #123, ( #284 ) ) ;
#104 = CARTESIAN_POINT ( 'NONE',  ( 0.000000000000000000, 0.000000000000000000, 5.000000000000000000 ) ) ;
#105 = DIRECTION ( 'NONE',  ( -0.000000000000000000, -0.000000000000000000, -1.000000000000000000 ) ) ;
#106 = CIRCLE ( 'NONE', #71, 6.000000000000000888 ) ;
#107 = PLANE ( 'NONE',  #280 ) ;
#108 = AXIS2_PLACEMENT_3D ( 'NONE', #272, #216, #57 ) ;
#109 = VECTOR ( 'NONE', #181, 1000.000000000000000 ) ;
#110 = DIRECTION ( 'NONE',  ( 1.000000000000000000, 0.000000000000000000, 0.000000000000000000 ) ) ;
#111 = CARTESIAN_POINT ( 'NONE',  ( 0.000000000000000000, 0.000000000000000000, 5.000000000000000000 ) ) ;
#112 = DIRECTION ( 'NONE',  ( -1.000000000000000000, 0.000000000000000000, 0.000000000000000000 ) ) ;
#113 = CIRCLE ( 'NONE', #301, 6.000000000000000888 ) ;
#114 = CC_DESIGN_APPROVAL ( #307, ( #278 ) ) ;
#115 = CARTESIAN_POINT ( 'NONE',  ( -3.450000000000000178, 4.225031457058368824E-16, 5.000000000000005329 ) ) ;
#116 = DIRECTION ( 'NONE',  ( 1.000000000000000000, 0.000000000000000000, 0.000000000000000000 ) ) ;
#117 = CARTESIAN_POINT ( 'NONE',  ( 0.000000000000000000, 0.000000000000000000, 5.000000000000000000 ) ) ;
#118 = EDGE_LOOP ( 'NONE', ( #75, #244 ) ) ;
#119 = DIRECTION ( 'NONE',  ( -1.000000000000000000, 0.000000000000000000, 0.000000000000000000 ) ) ;
#120 = APPROVAL_ROLE ( '' ) ;
#121 = COORDINATED_UNIVERSAL_TIME_OFFSET ( 1, 0, .AHEAD. ) ;
#122 = VECTOR ( 'NONE', #199, 1000.000000000000000 ) ;
#123 = DATE_TIME_ROLE ( 'creation_date' ) ;
#124 = ORIENTED_EDGE ( 'NONE', *, *, #275, .T. ) ;
#125 = DIRECTION ( 'NONE',  ( -1.000000000000000000, 0.000000000000000000, 0.000000000000000000 ) ) ;
#126 = AXIS2_PLACEMENT_3D ( 'NONE', #36, #134, #223 ) ;
#127 = CARTESIAN_POINT ( 'NONE',  ( 0.000000000000000000, 0.000000000000000000, 5.200000000000009948 ) ) ;
#128 = DIRECTION ( 'NONE',  ( 0.000000000000000000, 0.000000000000000000, 1.000000000000000000 ) ) ;
#129 = PERSON ( 'NEURÈENÝ', 'NEURÈENÝ', 'NEURÈENÝ', ('NEURÈENÝ'), ('NEURÈENÝ'), ('NEURÈENÝ') ) ;
#130 = AXIS2_PLACEMENT_3D ( 'NONE', #166, #239, #125 ) ;
#131 = CARTESIAN_POINT ( 'NONE',  ( 3.450000000000000178, 0.000000000000000000, 5.200000000000009948 ) ) ;
#132 = ADVANCED_FACE ( 'NONE', ( #289, #152 ), #4, .T. ) ;
#133 = DIRECTION ( 'NONE',  ( 0.000000000000000000, 0.000000000000000000, 1.000000000000000000 ) ) ;
#134 = DIRECTION ( 'NONE',  ( -0.000000000000000000, -0.000000000000000000, -1.000000000000000000 ) ) ;
#135 = ADVANCED_FACE ( 'NONE', ( #219 ), #107, .T. ) ;
#136 = CARTESIAN_POINT ( 'NONE',  ( -3.450000000000000178, 4.225031457058368824E-16, 5.200000000000009948 ) ) ;
#137 = VERTEX_POINT ( 'NONE', #254 ) ;
#138 = CARTESIAN_POINT ( 'NONE',  ( 3.450000000000000178, 0.000000000000000000, 5.000000000000005329 ) ) ;
#139 = ORIENTED_EDGE ( 'NONE', *, *, #247, .T. ) ;
#140 = EDGE_CURVE ( 'NONE', #137, #243, #253, .T. ) ;
#141 = VERTEX_POINT ( 'NONE', #299 ) ;
#142 = PERSON_AND_ORGANIZATION ( #129, #215 ) ;
#143 = APPROVAL_DATE_TIME ( #96, #307 ) ;
#144 = DATE_AND_TIME ( #162, #78 ) ;
#145 = AXIS2_PLACEMENT_3D ( 'NONE', #79, #294, #34 ) ;
#146 = PERSON_AND_ORGANIZATION_ROLE ( 'design_supplier' ) ;
#147 = CIRCLE ( 'NONE', #230, 0.2000000000000000944 ) ;
#148 = AXIS2_PLACEMENT_3D ( 'NONE', #117, #16, #112 ) ;
#149 = APPROVAL_ROLE ( '' ) ;
#150 = CARTESIAN_POINT ( 'NONE',  ( 0.000000000000000000, 0.000000000000000000, 0.000000000000000000 ) ) ;
#151 = DIRECTION ( 'NONE',  ( 0.000000000000000000, 0.000000000000000000, 1.000000000000000000 ) ) ;
#152 = FACE_OUTER_BOUND ( 'NONE', #300, .T. ) ;
#153 = ADVANCED_FACE ( 'NONE', ( #157 ), #39, .T. ) ;
#154 = EDGE_LOOP ( 'NONE', ( #100, #270 ) ) ;
#155 = ORIENTED_EDGE ( 'NONE', *, *, #8, .F. ) ;
#156 = LINE ( 'NONE', #94, #109 ) ;
#157 = FACE_OUTER_BOUND ( 'NONE', #101, .T. ) ;
#158 = FACE_OUTER_BOUND ( 'NONE', #93, .T. ) ;
#159 = DIRECTION ( 'NONE',  ( 0.000000000000000000, 0.000000000000000000, 1.000000000000000000 ) ) ;
#160 = CARTESIAN_POINT ( 'NONE',  ( 6.000000000000000888, 7.347880794884120722E-16, 5.000000000000000000 ) ) ;
#161 = ORIENTED_EDGE ( 'NONE', *, *, #267, .F. ) ;
#162 = CALENDAR_DATE ( 2022, 7, 7 ) ;
#163 = PERSON_AND_ORGANIZATION_ROLE ( 'creator' ) ;
#164 = PERSON_AND_ORGANIZATION ( #129, #215 ) ;
#165 = PERSON_AND_ORGANIZATION ( #129, #215 ) ;
#166 = CARTESIAN_POINT ( 'NONE',  ( 0.000000000000000000, 0.000000000000000000, 255.0000000000000000 ) ) ;
#167 = FACE_OUTER_BOUND ( 'NONE', #209, .T. ) ;
#168 = CIRCLE ( 'NONE', #189, 3.250000000000000444 ) ;
#169 = VERTEX_POINT ( 'NONE', #177 ) ;
#170 = LOCAL_TIME ( 12, 9, 17.00000000000000000, #238 ) ;
#171 = CC_DESIGN_PERSON_AND_ORGANIZATION_ASSIGNMENT ( #165, #2, ( #185 ) ) ;
#172 = ORIENTED_EDGE ( 'NONE', *, *, #140, .T. ) ;
#173 = CARTESIAN_POINT ( 'NONE',  ( 0.000000000000000000, 0.000000000000000000, 5.200000000000009948 ) ) ;
#174 = CARTESIAN_POINT ( 'NONE',  ( 6.000000000000000888, 7.347880794884120722E-16, 5.000000000000000000 ) ) ;
#175 = TOROIDAL_SURFACE ( 'NONE', #295, 3.450000000000000178, 0.2000000000000000111 ) ;
#176 = AXIS2_PLACEMENT_3D ( 'NONE', #28, #99, #304 ) ;
#177 = CARTESIAN_POINT ( 'NONE',  ( -3.250000000000000444, 0.000000000000000000, 255.0000000000000000 ) ) ;
#178 = DIRECTION ( 'NONE',  ( 1.000000000000000000, 0.000000000000000000, 0.000000000000000000 ) ) ;
#179 = ORIENTED_EDGE ( 'NONE', *, *, #140, .F. ) ;
#180 = CIRCLE ( 'NONE', #221, 6.000000000000000888 ) ;
#181 = DIRECTION ( 'NONE',  ( -0.000000000000000000, -0.000000000000000000, -1.000000000000000000 ) ) ;
#182 = DATE_AND_TIME ( #48, #259 ) ;
#183 = ADVANCED_FACE ( 'NONE', ( #37 ), #256, .T. ) ;
#184 = AXIS2_PLACEMENT_3D ( 'NONE', #173, #293, #193 ) ;
#185 = PRODUCT_DEFINITION_FORMATION_WITH_SPECIFIED_SOURCE ( 'LIBOVOLNÝ', '', #41, .NOT_KNOWN. ) ;
#186 = EDGE_LOOP ( 'NONE', ( #17, #81, #38, #42 ) ) ;
#187 = DATE_AND_TIME ( #285, #73 ) ;
#188 = EDGE_LOOP ( 'NONE', ( #218, #263, #58, #20 ) ) ;
#189 = AXIS2_PLACEMENT_3D ( 'NONE', #55, #7, #11 ) ;
#190 = AXIS2_PLACEMENT_3D ( 'NONE', #43, #229, #21 ) ;
#191 = VERTEX_POINT ( 'NONE', #138 ) ;
#192 = DIRECTION ( 'NONE',  ( 1.000000000000000000, 0.000000000000000000, 0.000000000000000000 ) ) ;
#193 = DIRECTION ( 'NONE',  ( 1.000000000000000000, 0.000000000000000000, 0.000000000000000000 ) ) ;
#194 = CARTESIAN_POINT ( 'NONE',  ( 0.000000000000000000, 0.000000000000000000, 255.0000000000000000 ) ) ;
#195 = LOCAL_TIME ( 12, 9, 17.00000000000000000, #77 ) ;
#196 = PLANE ( 'NONE',  #108 ) ;
#197 = VERTEX_POINT ( 'NONE', #115 ) ;
#198 = ADVANCED_FACE ( 'NONE', ( #203 ), #236, .F. ) ;
#199 = DIRECTION ( 'NONE',  ( -0.000000000000000000, -0.000000000000000000, -1.000000000000000000 ) ) ;
#200 = CARTESIAN_POINT ( 'NONE',  ( 0.000000000000000000, 0.000000000000000000, 0.000000000000000000 ) ) ;
#201 = DESIGN_CONTEXT ( 'detailed design', #27, 'design' ) ;
#202 = CARTESIAN_POINT ( 'NONE',  ( 6.000000000000000888, 7.347880794884120722E-16, 0.000000000000000000 ) ) ;
#203 = FACE_OUTER_BOUND ( 'NONE', #186, .T. ) ;
#204 = EDGE_CURVE ( 'NONE', #228, #287, #180, .T. ) ;
#205 = APPROVAL_STATUS ( 'not_yet_approved' ) ;
#206 = PERSON_AND_ORGANIZATION_ROLE ( 'classification_officer' ) ;
#207 = CIRCLE ( 'NONE', #126, 3.450000000000000178 ) ;
#208 = PERSON_AND_ORGANIZATION ( #129, #215 ) ;
#209 = EDGE_LOOP ( 'NONE', ( #3, #155, #44, #68 ) ) ;
#210 = PERSON_AND_ORGANIZATION ( #129, #215 ) ;
#211 = ORIENTED_EDGE ( 'NONE', *, *, #275, .F. ) ;
#212 = PRODUCT_RELATED_PRODUCT_CATEGORY ( 'detail', '', ( #41 ) ) ;
#213 = VERTEX_POINT ( 'NONE', #281 ) ;
#214 = CLOSED_SHELL ( 'NONE', ( #198, #217, #153, #183, #132, #91, #32, #135, #70 ) ) ;
#215 = ORGANIZATION ( 'NEURÈENÝ', 'NEURÈENÝ', '' ) ;
#216 = DIRECTION ( 'NONE',  ( 0.000000000000000000, 0.000000000000000000, 1.000000000000000000 ) ) ;
#217 = ADVANCED_FACE ( 'NONE', ( #158 ), #296, .T. ) ;
#218 = ORIENTED_EDGE ( 'NONE', *, *, #297, .F. ) ;
#219 = FACE_OUTER_BOUND ( 'NONE', #118, .T. ) ;
#220 = FACE_OUTER_BOUND ( 'NONE', #188, .T. ) ;
#221 = AXIS2_PLACEMENT_3D ( 'NONE', #200, #18, #116 ) ;
#222 = DIRECTION ( 'NONE',  ( 0.000000000000000000, 0.000000000000000000, -1.000000000000000000 ) ) ;
#223 = DIRECTION ( 'NONE',  ( 1.000000000000000000, 0.000000000000000000, 0.000000000000000000 ) ) ;
#224 = DIRECTION ( 'NONE',  ( 1.224646799147353207E-16, 1.000000000000000000, -0.000000000000000000 ) ) ;
#225 =( NAMED_UNIT ( * ) PLANE_ANGLE_UNIT ( ) SI_UNIT ( $, .RADIAN. ) );
#226 = ORIENTED_EDGE ( 'NONE', *, *, #204, .F. ) ;
#227 = DIRECTION ( 'NONE',  ( -0.000000000000000000, -0.000000000000000000, -1.000000000000000000 ) ) ;
#228 = VERTEX_POINT ( 'NONE', #202 ) ;
#229 = DIRECTION ( 'NONE',  ( 0.000000000000000000, 0.000000000000000000, 1.000000000000000000 ) ) ;
#230 = AXIS2_PLACEMENT_3D ( 'NONE', #136, #224, #15 ) ;
#231 = APPROVAL_ROLE ( '' ) ;
#232 = SHAPE_DEFINITION_REPRESENTATION ( #258, #265 ) ;
#233 = COORDINATED_UNIVERSAL_TIME_OFFSET ( 1, 0, .AHEAD. ) ;
#234 = CIRCLE ( 'NONE', #145, 3.250000000000000444 ) ;
#235 = VECTOR ( 'NONE', #62, 1000.000000000000000 ) ;
#236 = TOROIDAL_SURFACE ( 'NONE', #9, 3.450000000000000178, 0.2000000000000000111 ) ;
#237 = MANIFOLD_SOLID_BREP ( 'Zaoblit1', #214 ) ;
#238 = COORDINATED_UNIVERSAL_TIME_OFFSET ( 1, 0, .AHEAD. ) ;
#239 = DIRECTION ( 'NONE',  ( -0.000000000000000000, -0.000000000000000000, -1.000000000000000000 ) ) ;
#240 = EDGE_CURVE ( 'NONE', #54, #213, #303, .T. ) ;
#241 = APPROVAL_PERSON_ORGANIZATION ( #52, #307, #149 ) ;
#242 = DIRECTION ( 'NONE',  ( 1.000000000000000000, 0.000000000000000000, -0.000000000000000000 ) ) ;
#243 = VERTEX_POINT ( 'NONE', #174 ) ;
#244 = ORIENTED_EDGE ( 'NONE', *, *, #64, .T. ) ;
#245 = AXIS2_PLACEMENT_3D ( 'NONE', #111, #105, #33 ) ;
#246 = ORIENTED_EDGE ( 'NONE', *, *, #47, .F. ) ;
#247 = EDGE_CURVE ( 'NONE', #141, #54, #156, .T. ) ;
#248 = DIRECTION ( 'NONE',  ( -0.000000000000000000, -0.000000000000000000, -1.000000000000000000 ) ) ;
#249 = CARTESIAN_POINT ( 'NONE',  ( -6.000000000000000888, 0.000000000000000000, 0.000000000000000000 ) ) ;
#250 = CARTESIAN_POINT ( 'NONE',  ( 0.000000000000000000, 0.000000000000000000, 5.000000000000000000 ) ) ;
#251 = CC_DESIGN_SECURITY_CLASSIFICATION ( #278, ( #185 ) ) ;
#252 = ORIENTED_EDGE ( 'NONE', *, *, #12, .F. ) ;
#253 = CIRCLE ( 'NONE', #83, 6.000000000000000888 ) ;
#254 = CARTESIAN_POINT ( 'NONE',  ( -6.000000000000000888, 0.000000000000000000, 5.000000000000000000 ) ) ;
#255 = ORIENTED_EDGE ( 'NONE', *, *, #286, .F. ) ;
#256 = CYLINDRICAL_SURFACE ( 'NONE', #148, 6.000000000000000888 ) ;
#257 = ORIENTED_EDGE ( 'NONE', *, *, #204, .T. ) ;
#258 = PRODUCT_DEFINITION_SHAPE ( 'NONE', 'NONE',  #284 ) ;
#259 = LOCAL_TIME ( 12, 9, 17.00000000000000000, #121 ) ;
#260 = COORDINATED_UNIVERSAL_TIME_OFFSET ( 1, 0, .AHEAD. ) ;
#261 = EDGE_CURVE ( 'NONE', #191, #197, #207, .T. ) ;
#262 =( NAMED_UNIT ( * ) SI_UNIT ( $, .STERADIAN. ) SOLID_ANGLE_UNIT ( ) );
#263 = ORIENTED_EDGE ( 'NONE', *, *, #240, .F. ) ;
#264 = DATE_TIME_ROLE ( 'classification_date' ) ;
#265 = ADVANCED_BREP_SHAPE_REPRESENTATION ( '7b52', ( #237, #176 ), #291 ) ;
#266 = ORIENTED_EDGE ( 'NONE', *, *, #64, .F. ) ;
#267 = EDGE_CURVE ( 'NONE', #169, #213, #302, .T. ) ;
#268 = DIRECTION ( 'NONE',  ( 0.000000000000000000, 0.000000000000000000, 1.000000000000000000 ) ) ;
#269 = DIRECTION ( 'NONE',  ( 0.000000000000000000, -1.000000000000000000, 0.000000000000000000 ) ) ;
#270 = ORIENTED_EDGE ( 'NONE', *, *, #56, .T. ) ;
#271 = CC_DESIGN_PERSON_AND_ORGANIZATION_ASSIGNMENT ( #69, #163, ( #284 ) ) ;
#272 = CARTESIAN_POINT ( 'NONE',  ( 0.000000000000000000, 0.000000000000000000, 0.000000000000000000 ) ) ;
#273 = DIRECTION ( 'NONE',  ( 0.000000000000000000, 0.000000000000000000, 1.000000000000000000 ) ) ;
#274 = CARTESIAN_POINT ( 'NONE',  ( -6.000000000000000888, 0.000000000000000000, 5.000000000000000000 ) ) ;
#275 = EDGE_CURVE ( 'NONE', #243, #228, #277, .T. ) ;
#276 = CIRCLE ( 'NONE', #87, 0.1999999999999996503 ) ;
#277 = LINE ( 'NONE', #160, #82 ) ;
#278 = SECURITY_CLASSIFICATION ( '', '', #305 ) ;
#279 = ORIENTED_EDGE ( 'NONE', *, *, #286, .T. ) ;
#280 = AXIS2_PLACEMENT_3D ( 'NONE', #194, #292, #84 ) ;
#281 = CARTESIAN_POINT ( 'NONE',  ( -3.250000000000000444, 0.000000000000000000, 5.200000000000009948 ) ) ;
#282 = ORIENTED_EDGE ( 'NONE', *, *, #240, .T. ) ;
#283 = APPLICATION_PROTOCOL_DEFINITION ( 'international standard', 'config_control_design', 1994, #27 ) ;
#284 = PRODUCT_DEFINITION ( 'NEZNÁMÝ', '', #185, #201 ) ;
#285 = CALENDAR_DATE ( 2022, 7, 7 ) ;
#286 = EDGE_CURVE ( 'NONE', #137, #287, #298, .T. ) ;
#287 = VERTEX_POINT ( 'NONE', #249 ) ;
#288 = ORIENTED_EDGE ( 'NONE', *, *, #47, .T. ) ;
#289 = FACE_BOUND ( 'NONE', #154, .T. ) ;
#290 = CIRCLE ( 'NONE', #184, 3.250000000000000444 ) ;
#291 =( GEOMETRIC_REPRESENTATION_CONTEXT ( 3 ) GLOBAL_UNCERTAINTY_ASSIGNED_CONTEXT ( ( #5 ) ) GLOBAL_UNIT_ASSIGNED_CONTEXT ( ( #63, #225, #262 ) ) REPRESENTATION_CONTEXT ( 'NONE', 'WORKASPACE' ) );
#292 = DIRECTION ( 'NONE',  ( 0.000000000000000000, 0.000000000000000000, 1.000000000000000000 ) ) ;
#293 = DIRECTION ( 'NONE',  ( 0.000000000000000000, 0.000000000000000000, 1.000000000000000000 ) ) ;
#294 = DIRECTION ( 'NONE',  ( 0.000000000000000000, 0.000000000000000000, 1.000000000000000000 ) ) ;
#295 = AXIS2_PLACEMENT_3D ( 'NONE', #127, #128, #110 ) ;
#296 = CYLINDRICAL_SURFACE ( 'NONE', #22, 3.250000000000000444 ) ;
#297 = EDGE_CURVE ( 'NONE', #213, #197, #147, .T. ) ;
#298 = LINE ( 'NONE', #274, #235 ) ;
#299 = CARTESIAN_POINT ( 'NONE',  ( 3.250000000000000444, 3.980102097228898231E-16, 255.0000000000000000 ) ) ;
#300 = EDGE_LOOP ( 'NONE', ( #172, #288 ) ) ;
#301 = AXIS2_PLACEMENT_3D ( 'NONE', #6, #268, #85 ) ;
#302 = LINE ( 'NONE', #13, #122 ) ;
#303 = CIRCLE ( 'NONE', #190, 3.250000000000000444 ) ;
#304 = DIRECTION ( 'NONE',  ( 1.000000000000000000, 0.000000000000000000, 0.000000000000000000 ) ) ;
#305 = SECURITY_CLASSIFICATION_LEVEL ( 'unclassified' ) ;
#306 = APPROVAL_STATUS ( 'not_yet_approved' ) ;
#307 = APPROVAL ( #306, 'NEURÈENÝ' ) ;
ENDSEC;
END-ISO-10303-21;
