ISO-10303-21;
HEADER;
FILE_DESCRIPTION (( 'STEP AP203' ),
    '1' );
FILE_NAME ('3bb3.STEP',
    '2022-07-07T09:51:02',
    ( '' ),
    ( '' ),
    'SwSTEP 2.0',
    'SolidWorks 2019',
    '' );
FILE_SCHEMA (( 'CONFIG_CONTROL_DESIGN' ));
ENDSEC;

DATA;
#1 = AXIS2_PLACEMENT_3D ( 'NONE', #23, #231, #114 ) ;
#2 = CARTESIAN_POINT ( 'NONE',  ( 5.450000000000001066, 0.000000000000000000, 5.199999999999996625 ) ) ;
#3 = DIRECTION ( 'NONE',  ( 1.000000000000000000, 0.000000000000000000, 0.000000000000000000 ) ) ;
#4 = ADVANCED_FACE ( 'NONE', ( #90 ), #177, .F. ) ;
#5 = PERSON_AND_ORGANIZATION ( #270, #190 ) ;
#6 = LOCAL_TIME ( 11, 51, 2.000000000000000000, #215 ) ;
#7 = CALENDAR_DATE ( 2022, 7, 7 ) ;
#8 = PERSON_AND_ORGANIZATION ( #270, #190 ) ;
#9 = EDGE_LOOP ( 'NONE', ( #87, #33, #219, #222 ) ) ;
#10 = CARTESIAN_POINT ( 'NONE',  ( 0.000000000000000000, 0.000000000000000000, 0.000000000000000000 ) ) ;
#11 = COORDINATED_UNIVERSAL_TIME_OFFSET ( 1, 0, .AHEAD. ) ;
#12 = VERTEX_POINT ( 'NONE', #280 ) ;
#13 = DIRECTION ( 'NONE',  ( 0.000000000000000000, 0.000000000000000000, 1.000000000000000000 ) ) ;
#14 = EDGE_LOOP ( 'NONE', ( #149, #71 ) ) ;
#15 = SHAPE_DEFINITION_REPRESENTATION ( #163, #206 ) ;
#16 = DIRECTION ( 'NONE',  ( 1.000000000000000000, 0.000000000000000000, 0.000000000000000000 ) ) ;
#17 = DIRECTION ( 'NONE',  ( 1.000000000000000000, 0.000000000000000000, 0.000000000000000000 ) ) ;
#18 = AXIS2_PLACEMENT_3D ( 'NONE', #44, #67, #129 ) ;
#19 = CARTESIAN_POINT ( 'NONE',  ( -5.250000000000000888, 0.000000000000000000, 130.0000000000000000 ) ) ;
#20 = LOCAL_TIME ( 11, 51, 2.000000000000000000, #242 ) ;
#21 = CYLINDRICAL_SURFACE ( 'NONE', #260, 5.250000000000000888 ) ;
#22 = EDGE_CURVE ( 'NONE', #111, #200, #109, .T. ) ;
#23 = CARTESIAN_POINT ( 'NONE',  ( 0.000000000000000000, 0.000000000000000000, 5.000000000000000000 ) ) ;
#24 = CARTESIAN_POINT ( 'NONE',  ( 8.000000000000000000, 9.797174393178825657E-16, 5.000000000000000000 ) ) ;
#25 = EDGE_CURVE ( 'NONE', #214, #302, #254, .T. ) ;
#26 = DIRECTION ( 'NONE',  ( -1.000000000000000000, 0.000000000000000000, 0.000000000000000000 ) ) ;
#27 = CARTESIAN_POINT ( 'NONE',  ( -8.000000000000000000, 0.000000000000000000, 5.000000000000000000 ) ) ;
#28 = CIRCLE ( 'NONE', #99, 5.250000000000000888 ) ;
#29 = ORIENTED_EDGE ( 'NONE', *, *, #227, .F. ) ;
#30 = APPROVAL_DATE_TIME ( #170, #50 ) ;
#31 = ORIENTED_EDGE ( 'NONE', *, *, #83, .T. ) ;
#32 = MECHANICAL_CONTEXT ( 'NONE', #136, 'mechanical' ) ;
#33 = ORIENTED_EDGE ( 'NONE', *, *, #227, .T. ) ;
#34 = DIRECTION ( 'NONE',  ( 1.000000000000000000, 0.000000000000000000, 0.000000000000000000 ) ) ;
#35 = AXIS2_PLACEMENT_3D ( 'NONE', #274, #226, #127 ) ;
#36 = ORIENTED_EDGE ( 'NONE', *, *, #276, .T. ) ;
#37 = AXIS2_PLACEMENT_3D ( 'NONE', #229, #185, #133 ) ;
#38 = ADVANCED_FACE ( 'NONE', ( #304 ), #152, .T. ) ;
#39 = CC_DESIGN_DATE_AND_TIME_ASSIGNMENT ( #84, #171, ( #121 ) ) ;
#40 = PLANE ( 'NONE',  #18 ) ;
#41 = DIRECTION ( 'NONE',  ( 0.000000000000000000, 0.000000000000000000, 1.000000000000000000 ) ) ;
#42 = AXIS2_PLACEMENT_3D ( 'NONE', #117, #155, #258 ) ;
#43 = ORIENTED_EDGE ( 'NONE', *, *, #179, .T. ) ;
#44 = CARTESIAN_POINT ( 'NONE',  ( 0.000000000000000000, 0.000000000000000000, 0.000000000000000000 ) ) ;
#45 = VERTEX_POINT ( 'NONE', #153 ) ;
#46 = DIRECTION ( 'NONE',  ( 1.000000000000000000, 0.000000000000000000, 0.000000000000000000 ) ) ;
#47 = CC_DESIGN_PERSON_AND_ORGANIZATION_ASSIGNMENT ( #5, #61, ( #188 ) ) ;
#48 = DIRECTION ( 'NONE',  ( 0.000000000000000000, 0.000000000000000000, 1.000000000000000000 ) ) ;
#49 = DIRECTION ( 'NONE',  ( 0.000000000000000000, -1.000000000000000000, 0.000000000000000000 ) ) ;
#50 = APPROVAL ( #265, 'NEURÈENÝ' ) ;
#51 = CARTESIAN_POINT ( 'NONE',  ( 0.000000000000000000, 0.000000000000000000, 130.0000000000000000 ) ) ;
#52 = APPROVAL_PERSON_ORGANIZATION ( #269, #50, #102 ) ;
#53 = CARTESIAN_POINT ( 'NONE',  ( 0.000000000000000000, 0.000000000000000000, 5.199999999999996625 ) ) ;
#54 = DATE_TIME_ROLE ( 'creation_date' ) ;
#55 = CALENDAR_DATE ( 2022, 7, 7 ) ;
#56 = EDGE_CURVE ( 'NONE', #58, #194, #225, .T. ) ;
#57 = ORIENTED_EDGE ( 'NONE', *, *, #22, .T. ) ;
#58 = VERTEX_POINT ( 'NONE', #278 ) ;
#59 = PERSON_AND_ORGANIZATION ( #270, #190 ) ;
#60 = ORIENTED_EDGE ( 'NONE', *, *, #186, .T. ) ;
#61 = PERSON_AND_ORGANIZATION_ROLE ( 'design_owner' ) ;
#62 = AXIS2_PLACEMENT_3D ( 'NONE', #301, #13, #125 ) ;
#63 = ORIENTED_EDGE ( 'NONE', *, *, #72, .T. ) ;
#64 = APPROVAL ( #244, 'NEURÈENÝ' ) ;
#65 = APPROVAL_PERSON_ORGANIZATION ( #81, #158, #291 ) ;
#66 = CALENDAR_DATE ( 2022, 7, 7 ) ;
#67 = DIRECTION ( 'NONE',  ( 0.000000000000000000, 0.000000000000000000, 1.000000000000000000 ) ) ;
#68 = CARTESIAN_POINT ( 'NONE',  ( 0.000000000000000000, 0.000000000000000000, 5.000000000000000000 ) ) ;
#69 = EDGE_LOOP ( 'NONE', ( #299, #60 ) ) ;
#70 = EDGE_LOOP ( 'NONE', ( #253, #57, #178, #240 ) ) ;
#71 = ORIENTED_EDGE ( 'NONE', *, *, #56, .F. ) ;
#72 = EDGE_CURVE ( 'NONE', #12, #297, #266, .T. ) ;
#73 = DIRECTION ( 'NONE',  ( 1.000000000000000000, 0.000000000000000000, -0.000000000000000000 ) ) ;
#74 = CYLINDRICAL_SURFACE ( 'NONE', #207, 5.250000000000000888 ) ;
#75 = PLANE ( 'NONE',  #1 ) ;
#76 = CARTESIAN_POINT ( 'NONE',  ( 0.000000000000000000, 0.000000000000000000, 130.0000000000000000 ) ) ;
#77 = AXIS2_PLACEMENT_3D ( 'NONE', #164, #235, #34 ) ;
#78 = UNCERTAINTY_MEASURE_WITH_UNIT (LENGTH_MEASURE( 1.000000000000000082E-05 ), #167, 'distance_accuracy_value', 'NONE');
#79 = ADVANCED_FACE ( 'NONE', ( #110 ), #40, .F. ) ;
#80 = APPLICATION_PROTOCOL_DEFINITION ( 'international standard', 'config_control_design', 1994, #107 ) ;
#81 = PERSON_AND_ORGANIZATION ( #270, #190 ) ;
#82 =( NAMED_UNIT ( * ) SI_UNIT ( $, .STERADIAN. ) SOLID_ANGLE_UNIT ( ) );
#83 = EDGE_CURVE ( 'NONE', #45, #200, #28, .T. ) ;
#84 = DATE_AND_TIME ( #105, #141 ) ;
#85 = EDGE_LOOP ( 'NONE', ( #128, #174, #151, #243 ) ) ;
#86 = VECTOR ( 'NONE', #306, 1000.000000000000000 ) ;
#87 = ORIENTED_EDGE ( 'NONE', *, *, #83, .F. ) ;
#88 = APPROVAL_ROLE ( '' ) ;
#89 = DIRECTION ( 'NONE',  ( -1.000000000000000000, 0.000000000000000000, 0.000000000000000000 ) ) ;
#90 = FACE_OUTER_BOUND ( 'NONE', #9, .T. ) ;
#91 = CARTESIAN_POINT ( 'NONE',  ( 0.000000000000000000, 0.000000000000000000, 5.199999999999996625 ) ) ;
#92 = CARTESIAN_POINT ( 'NONE',  ( 0.000000000000000000, 0.000000000000000000, 0.000000000000000000 ) ) ;
#93 = LINE ( 'NONE', #24, #228 ) ;
#94 = DIRECTION ( 'NONE',  ( 1.000000000000000000, 0.000000000000000000, 0.000000000000000000 ) ) ;
#95 = AXIS2_PLACEMENT_3D ( 'NONE', #51, #113, #3 ) ;
#96 = CYLINDRICAL_SURFACE ( 'NONE', #37, 8.000000000000000000 ) ;
#97 = EDGE_CURVE ( 'NONE', #200, #45, #204, .T. ) ;
#98 = DIRECTION ( 'NONE',  ( -0.000000000000000000, -0.000000000000000000, -1.000000000000000000 ) ) ;
#99 = AXIS2_PLACEMENT_3D ( 'NONE', #224, #196, #17 ) ;
#100 = PERSON_AND_ORGANIZATION_ROLE ( 'design_supplier' ) ;
#101 = ORIENTED_EDGE ( 'NONE', *, *, #296, .T. ) ;
#102 = APPROVAL_ROLE ( '' ) ;
#103 = CC_DESIGN_DATE_AND_TIME_ASSIGNMENT ( #264, #54, ( #212 ) ) ;
#104 = EDGE_LOOP ( 'NONE', ( #29, #137, #124, #175 ) ) ;
#105 = CALENDAR_DATE ( 2022, 7, 7 ) ;
#106 = VERTEX_POINT ( 'NONE', #19 ) ;
#107 = APPLICATION_CONTEXT ( 'configuration controlled 3d designs of mechanical parts and assemblies' ) ;
#108 = CARTESIAN_POINT ( 'NONE',  ( 5.250000000000000888, 6.429395695523605139E-16, 130.0000000000000000 ) ) ;
#109 = LINE ( 'NONE', #108, #162 ) ;
#110 = FACE_OUTER_BOUND ( 'NONE', #14, .T. ) ;
#111 = VERTEX_POINT ( 'NONE', #205 ) ;
#112 = CIRCLE ( 'NONE', #120, 8.000000000000000000 ) ;
#113 = DIRECTION ( 'NONE',  ( 0.000000000000000000, 0.000000000000000000, 1.000000000000000000 ) ) ;
#114 = DIRECTION ( 'NONE',  ( 1.000000000000000000, 0.000000000000000000, -0.000000000000000000 ) ) ;
#115 = DIRECTION ( 'NONE',  ( 1.000000000000000000, 0.000000000000000000, 0.000000000000000000 ) ) ;
#116 = AXIS2_PLACEMENT_3D ( 'NONE', #53, #135, #46 ) ;
#117 = CARTESIAN_POINT ( 'NONE',  ( -5.450000000000001066, 6.674325055353076224E-16, 5.199999999999996625 ) ) ;
#118 = DIRECTION ( 'NONE',  ( 0.000000000000000000, 0.000000000000000000, -1.000000000000000000 ) ) ;
#119 = AXIS2_PLACEMENT_3D ( 'NONE', #251, #41, #249 ) ;
#120 = AXIS2_PLACEMENT_3D ( 'NONE', #307, #184, #131 ) ;
#121 = SECURITY_CLASSIFICATION ( '', '', #271 ) ;
#122 = PERSON_AND_ORGANIZATION_ROLE ( 'creator' ) ;
#123 = CC_DESIGN_PERSON_AND_ORGANIZATION_ASSIGNMENT ( #168, #216, ( #212 ) ) ;
#124 = ORIENTED_EDGE ( 'NONE', *, *, #134, .T. ) ;
#125 = DIRECTION ( 'NONE',  ( 1.000000000000000000, 0.000000000000000000, 0.000000000000000000 ) ) ;
#126 = EDGE_CURVE ( 'NONE', #194, #58, #248, .T. ) ;
#127 = DIRECTION ( 'NONE',  ( 1.000000000000000000, 0.000000000000000000, 0.000000000000000000 ) ) ;
#128 = ORIENTED_EDGE ( 'NONE', *, *, #276, .F. ) ;
#129 = DIRECTION ( 'NONE',  ( 1.000000000000000000, 0.000000000000000000, -0.000000000000000000 ) ) ;
#130 = DIRECTION ( 'NONE',  ( -0.000000000000000000, -0.000000000000000000, -1.000000000000000000 ) ) ;
#131 = DIRECTION ( 'NONE',  ( 1.000000000000000000, 0.000000000000000000, 0.000000000000000000 ) ) ;
#132 = CARTESIAN_POINT ( 'NONE',  ( 0.000000000000000000, 0.000000000000000000, 130.0000000000000000 ) ) ;
#133 = DIRECTION ( 'NONE',  ( -1.000000000000000000, 0.000000000000000000, 0.000000000000000000 ) ) ;
#134 = EDGE_CURVE ( 'NONE', #200, #214, #138, .T. ) ;
#135 = DIRECTION ( 'NONE',  ( 0.000000000000000000, 0.000000000000000000, 1.000000000000000000 ) ) ;
#136 = APPLICATION_CONTEXT ( 'configuration controlled 3d designs of mechanical parts and assemblies' ) ;
#137 = ORIENTED_EDGE ( 'NONE', *, *, #97, .F. ) ;
#138 = CIRCLE ( 'NONE', #250, 0.1999999999999996503 ) ;
#139 = COORDINATED_UNIVERSAL_TIME_OFFSET ( 1, 0, .AHEAD. ) ;
#140 = CIRCLE ( 'NONE', #275, 5.250000000000000888 ) ;
#141 = LOCAL_TIME ( 11, 51, 2.000000000000000000, #11 ) ;
#142 = ORIENTED_EDGE ( 'NONE', *, *, #25, .T. ) ;
#143 = PERSON_AND_ORGANIZATION_ROLE ( 'classification_officer' ) ;
#144 = ORIENTED_EDGE ( 'NONE', *, *, #179, .F. ) ;
#145 = AXIS2_PLACEMENT_3D ( 'NONE', #277, #150, #16 ) ;
#146 = PERSON_AND_ORGANIZATION ( #270, #190 ) ;
#147 = AXIS2_PLACEMENT_3D ( 'NONE', #10, #293, #292 ) ;
#148 = ADVANCED_FACE ( 'NONE', ( #181 ), #21, .T. ) ;
#149 = ORIENTED_EDGE ( 'NONE', *, *, #126, .F. ) ;
#150 = DIRECTION ( 'NONE',  ( 0.000000000000000000, 0.000000000000000000, 1.000000000000000000 ) ) ;
#151 = ORIENTED_EDGE ( 'NONE', *, *, #252, .T. ) ;
#152 = CYLINDRICAL_SURFACE ( 'NONE', #237, 8.000000000000000000 ) ;
#153 = CARTESIAN_POINT ( 'NONE',  ( -5.250000000000000888, 0.000000000000000000, 5.199999999999996625 ) ) ;
#154 = AXIS2_PLACEMENT_3D ( 'NONE', #92, #209, #115 ) ;
#155 = DIRECTION ( 'NONE',  ( 1.224646799147353207E-16, 1.000000000000000000, -0.000000000000000000 ) ) ;
#156 = CC_DESIGN_APPROVAL ( #158, ( #212 ) ) ;
#157 = FACE_OUTER_BOUND ( 'NONE', #272, .T. ) ;
#158 = APPROVAL ( #295, 'NEURÈENÝ' ) ;
#159 = LINE ( 'NONE', #27, #86 ) ;
#160 = CC_DESIGN_PERSON_AND_ORGANIZATION_ASSIGNMENT ( #8, #100, ( #166 ) ) ;
#161 = DIRECTION ( 'NONE',  ( -1.000000000000000000, 0.000000000000000000, 0.000000000000000000 ) ) ;
#162 = VECTOR ( 'NONE', #247, 1000.000000000000000 ) ;
#163 = PRODUCT_DEFINITION_SHAPE ( 'NONE', 'NONE',  #212 ) ;
#164 = CARTESIAN_POINT ( 'NONE',  ( 0.000000000000000000, 0.000000000000000000, 5.000000000000000000 ) ) ;
#165 = VECTOR ( 'NONE', #98, 1000.000000000000000 ) ;
#166 = PRODUCT_DEFINITION_FORMATION_WITH_SPECIFIED_SOURCE ( 'LIBOVOLNÝ', '', #188, .NOT_KNOWN. ) ;
#167 =( LENGTH_UNIT ( ) NAMED_UNIT ( * ) SI_UNIT ( .MILLI., .METRE. ) );
#168 = PERSON_AND_ORGANIZATION ( #270, #190 ) ;
#169 = TOROIDAL_SURFACE ( 'NONE', #116, 5.450000000000001066, 0.2000000000000000111 ) ;
#170 = DATE_AND_TIME ( #192, #197 ) ;
#171 = DATE_TIME_ROLE ( 'classification_date' ) ;
#172 = ADVANCED_FACE ( 'NONE', ( #259 ), #282, .T. ) ;
#173 = APPROVAL_DATE_TIME ( #195, #64 ) ;
#174 = ORIENTED_EDGE ( 'NONE', *, *, #72, .F. ) ;
#175 = ORIENTED_EDGE ( 'NONE', *, *, #296, .F. ) ;
#176 = EDGE_LOOP ( 'NONE', ( #142, #101 ) ) ;
#177 = TOROIDAL_SURFACE ( 'NONE', #62, 5.450000000000001066, 0.2000000000000000111 ) ;
#178 = ORIENTED_EDGE ( 'NONE', *, *, #97, .T. ) ;
#179 = EDGE_CURVE ( 'NONE', #297, #12, #112, .T. ) ;
#180 = DIRECTION ( 'NONE',  ( 0.000000000000000000, 0.000000000000000000, 1.000000000000000000 ) ) ;
#181 = FACE_OUTER_BOUND ( 'NONE', #70, .T. ) ;
#182 = DIRECTION ( 'NONE',  ( -0.000000000000000000, -0.000000000000000000, -1.000000000000000000 ) ) ;
#183 = CC_DESIGN_APPROVAL ( #50, ( #166 ) ) ;
#184 = DIRECTION ( 'NONE',  ( 0.000000000000000000, 0.000000000000000000, 1.000000000000000000 ) ) ;
#185 = DIRECTION ( 'NONE',  ( -0.000000000000000000, -0.000000000000000000, -1.000000000000000000 ) ) ;
#186 = EDGE_CURVE ( 'NONE', #111, #106, #140, .T. ) ;
#187 = FACE_OUTER_BOUND ( 'NONE', #201, .T. ) ;
#188 = PRODUCT ( '3bb3', '3bb3', '', ( #32 ) ) ;
#189 = CARTESIAN_POINT ( 'NONE',  ( 8.000000000000000000, 9.797174393178825657E-16, 5.000000000000000000 ) ) ;
#190 = ORGANIZATION ( 'NEURÈENÝ', 'NEURÈENÝ', '' ) ;
#191 = APPROVAL_DATE_TIME ( #273, #158 ) ;
#192 = CALENDAR_DATE ( 2022, 7, 7 ) ;
#193 = EDGE_CURVE ( 'NONE', #106, #111, #221, .T. ) ;
#194 = VERTEX_POINT ( 'NONE', #230 ) ;
#195 = DATE_AND_TIME ( #66, #233 ) ;
#196 = DIRECTION ( 'NONE',  ( 0.000000000000000000, 0.000000000000000000, 1.000000000000000000 ) ) ;
#197 = LOCAL_TIME ( 11, 51, 2.000000000000000000, #139 ) ;
#198 = ORIENTED_EDGE ( 'NONE', *, *, #252, .F. ) ;
#199 = DIRECTION ( 'NONE',  ( -0.000000000000000000, -0.000000000000000000, -1.000000000000000000 ) ) ;
#200 = VERTEX_POINT ( 'NONE', #305 ) ;
#201 = EDGE_LOOP ( 'NONE', ( #217, #220, #267, #31 ) ) ;
#202 = ADVANCED_FACE ( 'NONE', ( #157 ), #96, .T. ) ;
#203 = FACE_OUTER_BOUND ( 'NONE', #238, .T. ) ;
#204 = CIRCLE ( 'NONE', #298, 5.250000000000000888 ) ;
#205 = CARTESIAN_POINT ( 'NONE',  ( 5.250000000000000888, 6.429395695523605139E-16, 130.0000000000000000 ) ) ;
#206 = ADVANCED_BREP_SHAPE_REPRESENTATION ( '3bb3', ( #232, #147 ), #289 ) ;
#207 = AXIS2_PLACEMENT_3D ( 'NONE', #76, #256, #161 ) ;
#208 = CARTESIAN_POINT ( 'NONE',  ( 0.000000000000000000, 0.000000000000000000, 130.0000000000000000 ) ) ;
#209 = DIRECTION ( 'NONE',  ( 0.000000000000000000, 0.000000000000000000, 1.000000000000000000 ) ) ;
#210 = CARTESIAN_POINT ( 'NONE',  ( -5.450000000000001066, 6.674325055353076224E-16, 4.999999999999998224 ) ) ;
#211 = CIRCLE ( 'NONE', #42, 0.1999999999999996503 ) ;
#212 = PRODUCT_DEFINITION ( 'NEZNÁMÝ', '', #166, #262 ) ;
#213 = PERSON_AND_ORGANIZATION ( #270, #190 ) ;
#214 = VERTEX_POINT ( 'NONE', #284 ) ;
#215 = COORDINATED_UNIVERSAL_TIME_OFFSET ( 1, 0, .AHEAD. ) ;
#216 = PERSON_AND_ORGANIZATION_ROLE ( 'creator' ) ;
#217 = ORIENTED_EDGE ( 'NONE', *, *, #22, .F. ) ;
#218 = CC_DESIGN_APPROVAL ( #64, ( #121 ) ) ;
#219 = ORIENTED_EDGE ( 'NONE', *, *, #25, .F. ) ;
#220 = ORIENTED_EDGE ( 'NONE', *, *, #193, .F. ) ;
#221 = CIRCLE ( 'NONE', #95, 5.250000000000000888 ) ;
#222 = ORIENTED_EDGE ( 'NONE', *, *, #134, .F. ) ;
#223 = PRODUCT_RELATED_PRODUCT_CATEGORY ( 'detail', '', ( #188 ) ) ;
#224 = CARTESIAN_POINT ( 'NONE',  ( 0.000000000000000000, 0.000000000000000000, 5.199999999999996625 ) ) ;
#225 = CIRCLE ( 'NONE', #145, 8.000000000000000000 ) ;
#226 = DIRECTION ( 'NONE',  ( -0.000000000000000000, -0.000000000000000000, -1.000000000000000000 ) ) ;
#227 = EDGE_CURVE ( 'NONE', #45, #302, #211, .T. ) ;
#228 = VECTOR ( 'NONE', #182, 1000.000000000000000 ) ;
#229 = CARTESIAN_POINT ( 'NONE',  ( 0.000000000000000000, 0.000000000000000000, 5.000000000000000000 ) ) ;
#230 = CARTESIAN_POINT ( 'NONE',  ( -8.000000000000000000, 0.000000000000000000, 0.000000000000000000 ) ) ;
#231 = DIRECTION ( 'NONE',  ( 0.000000000000000000, 0.000000000000000000, 1.000000000000000000 ) ) ;
#232 = MANIFOLD_SOLID_BREP ( 'Zaoblit1', #279 ) ;
#233 = LOCAL_TIME ( 11, 51, 2.000000000000000000, #246 ) ;
#234 = FACE_OUTER_BOUND ( 'NONE', #104, .T. ) ;
#235 = DIRECTION ( 'NONE',  ( -0.000000000000000000, -0.000000000000000000, -1.000000000000000000 ) ) ;
#236 =( NAMED_UNIT ( * ) PLANE_ANGLE_UNIT ( ) SI_UNIT ( $, .RADIAN. ) );
#237 = AXIS2_PLACEMENT_3D ( 'NONE', #68, #199, #89 ) ;
#238 = EDGE_LOOP ( 'NONE', ( #63, #43 ) ) ;
#239 = APPLICATION_PROTOCOL_DEFINITION ( 'international standard', 'config_control_design', 1994, #136 ) ;
#240 = ORIENTED_EDGE ( 'NONE', *, *, #263, .F. ) ;
#241 = ADVANCED_FACE ( 'NONE', ( #287, #203 ), #75, .T. ) ;
#242 = COORDINATED_UNIVERSAL_TIME_OFFSET ( 1, 0, .AHEAD. ) ;
#243 = ORIENTED_EDGE ( 'NONE', *, *, #126, .T. ) ;
#244 = APPROVAL_STATUS ( 'not_yet_approved' ) ;
#245 = ORIENTED_EDGE ( 'NONE', *, *, #56, .T. ) ;
#246 = COORDINATED_UNIVERSAL_TIME_OFFSET ( 1, 0, .AHEAD. ) ;
#247 = DIRECTION ( 'NONE',  ( -0.000000000000000000, -0.000000000000000000, -1.000000000000000000 ) ) ;
#248 = CIRCLE ( 'NONE', #154, 8.000000000000000000 ) ;
#249 = DIRECTION ( 'NONE',  ( 1.000000000000000000, 0.000000000000000000, 0.000000000000000000 ) ) ;
#250 = AXIS2_PLACEMENT_3D ( 'NONE', #2, #49, #118 ) ;
#251 = CARTESIAN_POINT ( 'NONE',  ( 0.000000000000000000, 0.000000000000000000, 5.000000000000000000 ) ) ;
#252 = EDGE_CURVE ( 'NONE', #12, #194, #159, .T. ) ;
#253 = ORIENTED_EDGE ( 'NONE', *, *, #186, .F. ) ;
#254 = CIRCLE ( 'NONE', #35, 5.450000000000001066 ) ;
#255 = CC_DESIGN_PERSON_AND_ORGANIZATION_ASSIGNMENT ( #59, #143, ( #121 ) ) ;
#256 = DIRECTION ( 'NONE',  ( -0.000000000000000000, -0.000000000000000000, -1.000000000000000000 ) ) ;
#257 = DIRECTION ( 'NONE',  ( 0.000000000000000000, 0.000000000000000000, 1.000000000000000000 ) ) ;
#258 = DIRECTION ( 'NONE',  ( -1.000000000000000000, 1.224646799147353454E-16, 0.000000000000000000 ) ) ;
#259 = FACE_OUTER_BOUND ( 'NONE', #69, .T. ) ;
#260 = AXIS2_PLACEMENT_3D ( 'NONE', #132, #130, #26 ) ;
#261 = CARTESIAN_POINT ( 'NONE',  ( 0.000000000000000000, 0.000000000000000000, 130.0000000000000000 ) ) ;
#262 = DESIGN_CONTEXT ( 'detailed design', #107, 'design' ) ;
#263 = EDGE_CURVE ( 'NONE', #106, #45, #283, .T. ) ;
#264 = DATE_AND_TIME ( #7, #20 ) ;
#265 = APPROVAL_STATUS ( 'not_yet_approved' ) ;
#266 = CIRCLE ( 'NONE', #119, 8.000000000000000000 ) ;
#267 = ORIENTED_EDGE ( 'NONE', *, *, #263, .T. ) ;
#268 = AXIS2_PLACEMENT_3D ( 'NONE', #261, #48, #73 ) ;
#269 = PERSON_AND_ORGANIZATION ( #270, #190 ) ;
#270 = PERSON ( 'NEURÈENÝ', 'NEURÈENÝ', 'NEURÈENÝ', ('NEURÈENÝ'), ('NEURÈENÝ'), ('NEURÈENÝ') ) ;
#271 = SECURITY_CLASSIFICATION_LEVEL ( 'unclassified' ) ;
#272 = EDGE_LOOP ( 'NONE', ( #144, #36, #245, #198 ) ) ;
#273 = DATE_AND_TIME ( #55, #6 ) ;
#274 = CARTESIAN_POINT ( 'NONE',  ( 0.000000000000000000, 0.000000000000000000, 5.000000000000000000 ) ) ;
#275 = AXIS2_PLACEMENT_3D ( 'NONE', #208, #257, #94 ) ;
#276 = EDGE_CURVE ( 'NONE', #297, #58, #93, .T. ) ;
#277 = CARTESIAN_POINT ( 'NONE',  ( 0.000000000000000000, 0.000000000000000000, 0.000000000000000000 ) ) ;
#278 = CARTESIAN_POINT ( 'NONE',  ( 8.000000000000000000, 9.797174393178825657E-16, 0.000000000000000000 ) ) ;
#279 = CLOSED_SHELL ( 'NONE', ( #4, #148, #202, #38, #241, #79, #285, #172, #288 ) ) ;
#280 = CARTESIAN_POINT ( 'NONE',  ( -8.000000000000000000, 0.000000000000000000, 5.000000000000000000 ) ) ;
#281 = DIRECTION ( 'NONE',  ( 1.000000000000000000, 0.000000000000000000, 0.000000000000000000 ) ) ;
#282 = PLANE ( 'NONE',  #268 ) ;
#283 = LINE ( 'NONE', #286, #165 ) ;
#284 = CARTESIAN_POINT ( 'NONE',  ( 5.450000000000001066, 0.000000000000000000, 4.999999999999998224 ) ) ;
#285 = ADVANCED_FACE ( 'NONE', ( #187 ), #74, .T. ) ;
#286 = CARTESIAN_POINT ( 'NONE',  ( -5.250000000000000888, 0.000000000000000000, 130.0000000000000000 ) ) ;
#287 = FACE_BOUND ( 'NONE', #176, .T. ) ;
#288 = ADVANCED_FACE ( 'NONE', ( #234 ), #169, .F. ) ;
#289 =( GEOMETRIC_REPRESENTATION_CONTEXT ( 3 ) GLOBAL_UNCERTAINTY_ASSIGNED_CONTEXT ( ( #78 ) ) GLOBAL_UNIT_ASSIGNED_CONTEXT ( ( #167, #236, #82 ) ) REPRESENTATION_CONTEXT ( 'NONE', 'WORKASPACE' ) );
#290 = APPROVAL_PERSON_ORGANIZATION ( #146, #64, #88 ) ;
#291 = APPROVAL_ROLE ( '' ) ;
#292 = DIRECTION ( 'NONE',  ( 1.000000000000000000, 0.000000000000000000, 0.000000000000000000 ) ) ;
#293 = DIRECTION ( 'NONE',  ( 0.000000000000000000, 0.000000000000000000, 1.000000000000000000 ) ) ;
#294 = CIRCLE ( 'NONE', #77, 5.450000000000001066 ) ;
#295 = APPROVAL_STATUS ( 'not_yet_approved' ) ;
#296 = EDGE_CURVE ( 'NONE', #302, #214, #294, .T. ) ;
#297 = VERTEX_POINT ( 'NONE', #189 ) ;
#298 = AXIS2_PLACEMENT_3D ( 'NONE', #91, #180, #281 ) ;
#299 = ORIENTED_EDGE ( 'NONE', *, *, #193, .T. ) ;
#300 = CC_DESIGN_SECURITY_CLASSIFICATION ( #121, ( #166 ) ) ;
#301 = CARTESIAN_POINT ( 'NONE',  ( 0.000000000000000000, 0.000000000000000000, 5.199999999999996625 ) ) ;
#302 = VERTEX_POINT ( 'NONE', #210 ) ;
#303 = CC_DESIGN_PERSON_AND_ORGANIZATION_ASSIGNMENT ( #213, #122, ( #166 ) ) ;
#304 = FACE_OUTER_BOUND ( 'NONE', #85, .T. ) ;
#305 = CARTESIAN_POINT ( 'NONE',  ( 5.250000000000000888, 6.429395695523605139E-16, 5.199999999999996625 ) ) ;
#306 = DIRECTION ( 'NONE',  ( -0.000000000000000000, -0.000000000000000000, -1.000000000000000000 ) ) ;
#307 = CARTESIAN_POINT ( 'NONE',  ( 0.000000000000000000, 0.000000000000000000, 5.000000000000000000 ) ) ;
ENDSEC;
END-ISO-10303-21;
