ISO-10303-21;
HEADER;
FILE_DESCRIPTION (( 'STEP AP203' ),
    '1' );
FILE_NAME ('c4bb.STEP',
    '2022-07-07T10:21:34',
    ( '' ),
    ( '' ),
    'SwSTEP 2.0',
    'SolidWorks 2019',
    '' );
FILE_SCHEMA (( 'CONFIG_CONTROL_DESIGN' ));
ENDSEC;

DATA;
#1 = DIRECTION ( 'NONE',  ( -1.000000000000000000, 0.000000000000000000, 0.000000000000000000 ) ) ;
#2 = CARTESIAN_POINT ( 'NONE',  ( 0.000000000000000000, 0.000000000000000000, 318.0000000000000000 ) ) ;
#3 = PRODUCT_DEFINITION ( 'NEZNÁMÝ', '', #229, #215 ) ;
#4 = DIRECTION ( 'NONE',  ( 1.000000000000000000, 0.000000000000000000, 0.000000000000000000 ) ) ;
#5 = UNCERTAINTY_MEASURE_WITH_UNIT (LENGTH_MEASURE( 1.000000000000000082E-05 ), #6, 'distance_accuracy_value', 'NONE');
#6 =( LENGTH_UNIT ( ) NAMED_UNIT ( * ) SI_UNIT ( .MILLI., .METRE. ) );
#7 = DIRECTION ( 'NONE',  ( 1.000000000000000000, 0.000000000000000000, 0.000000000000000000 ) ) ;
#8 = APPROVAL_PERSON_ORGANIZATION ( #294, #43, #297 ) ;
#9 = APPROVAL_STATUS ( 'not_yet_approved' ) ;
#10 = VERTEX_POINT ( 'NONE', #119 ) ;
#11 = EDGE_LOOP ( 'NONE', ( #300, #303, #254, #132 ) ) ;
#12 = DIRECTION ( 'NONE',  ( 1.000000000000000000, 0.000000000000000000, 0.000000000000000000 ) ) ;
#13 = CC_DESIGN_APPROVAL ( #198, ( #3 ) ) ;
#14 = ORIENTED_EDGE ( 'NONE', *, *, #15, .F. ) ;
#15 = EDGE_CURVE ( 'NONE', #150, #10, #57, .T. ) ;
#16 = CARTESIAN_POINT ( 'NONE',  ( -4.000000000000000000, 0.000000000000000000, 3.000000000000000000 ) ) ;
#17 = FACE_OUTER_BOUND ( 'NONE', #231, .T. ) ;
#18 = ADVANCED_FACE ( 'NONE', ( #134 ), #236, .T. ) ;
#19 = DIRECTION ( 'NONE',  ( 1.000000000000000000, 0.000000000000000000, 0.000000000000000000 ) ) ;
#20 = EDGE_LOOP ( 'NONE', ( #129, #204 ) ) ;
#21 = ADVANCED_FACE ( 'NONE', ( #184 ), #186, .F. ) ;
#22 = CIRCLE ( 'NONE', #75, 2.449999999999999734 ) ;
#23 = MANIFOLD_SOLID_BREP ( 'Zaoblit1', #83 ) ;
#24 = DIRECTION ( 'NONE',  ( -0.000000000000000000, -0.000000000000000000, -1.000000000000000000 ) ) ;
#25 = CC_DESIGN_PERSON_AND_ORGANIZATION_ASSIGNMENT ( #176, #175, ( #90 ) ) ;
#26 = DIRECTION ( 'NONE',  ( 1.000000000000000000, 0.000000000000000000, -0.000000000000000000 ) ) ;
#27 = DIRECTION ( 'NONE',  ( 1.000000000000000000, 0.000000000000000000, 0.000000000000000000 ) ) ;
#28 = AXIS2_PLACEMENT_3D ( 'NONE', #172, #71, #4 ) ;
#29 = DIRECTION ( 'NONE',  ( 1.000000000000000000, 0.000000000000000000, 0.000000000000000000 ) ) ;
#30 = FACE_OUTER_BOUND ( 'NONE', #277, .T. ) ;
#31 = AXIS2_PLACEMENT_3D ( 'NONE', #266, #245, #26 ) ;
#32 = PERSON_AND_ORGANIZATION ( #246, #293 ) ;
#33 = CIRCLE ( 'NONE', #305, 2.250000000000000000 ) ;
#34 = DATE_AND_TIME ( #221, #234 ) ;
#35 = ORIENTED_EDGE ( 'NONE', *, *, #286, .F. ) ;
#36 = AXIS2_PLACEMENT_3D ( 'NONE', #67, #66, #39 ) ;
#37 = ORIENTED_EDGE ( 'NONE', *, *, #98, .T. ) ;
#38 = PERSON_AND_ORGANIZATION_ROLE ( 'classification_officer' ) ;
#39 = DIRECTION ( 'NONE',  ( 1.000000000000000000, 0.000000000000000000, -0.000000000000000000 ) ) ;
#40 = LINE ( 'NONE', #207, #270 ) ;
#41 = DIRECTION ( 'NONE',  ( 0.000000000000000000, -1.000000000000000000, 0.000000000000000000 ) ) ;
#42 = CARTESIAN_POINT ( 'NONE',  ( 0.000000000000000000, 0.000000000000000000, 3.000000000000000000 ) ) ;
#43 = APPROVAL ( #82, 'NEURÈENÝ' ) ;
#44 = CYLINDRICAL_SURFACE ( 'NONE', #217, 2.250000000000000000 ) ;
#45 = SECURITY_CLASSIFICATION ( '', '', #59 ) ;
#46 = CARTESIAN_POINT ( 'NONE',  ( 0.000000000000000000, 0.000000000000000000, 3.199999999999980638 ) ) ;
#47 = PLANE ( 'NONE',  #31 ) ;
#48 = FACE_OUTER_BOUND ( 'NONE', #202, .T. ) ;
#49 = AXIS2_PLACEMENT_3D ( 'NONE', #46, #192, #29 ) ;
#50 = DIRECTION ( 'NONE',  ( 1.000000000000000000, 0.000000000000000000, 0.000000000000000000 ) ) ;
#51 = DATE_AND_TIME ( #147, #95 ) ;
#52 = ORIENTED_EDGE ( 'NONE', *, *, #268, .F. ) ;
#53 = AXIS2_PLACEMENT_3D ( 'NONE', #144, #142, #269 ) ;
#54 = PERSON_AND_ORGANIZATION ( #246, #293 ) ;
#55 = ORIENTED_EDGE ( 'NONE', *, *, #86, .F. ) ;
#56 = DATE_AND_TIME ( #61, #65 ) ;
#57 = CIRCLE ( 'NONE', #213, 2.250000000000000000 ) ;
#58 = ORIENTED_EDGE ( 'NONE', *, *, #169, .F. ) ;
#59 = SECURITY_CLASSIFICATION_LEVEL ( 'unclassified' ) ;
#60 = EDGE_LOOP ( 'NONE', ( #127, #201, #280, #37 ) ) ;
#61 = CALENDAR_DATE ( 2022, 7, 7 ) ;
#62 = DIRECTION ( 'NONE',  ( 1.000000000000000000, 0.000000000000000000, 0.000000000000000000 ) ) ;
#63 = EDGE_LOOP ( 'NONE', ( #14, #226, #296, #55 ) ) ;
#64 = CARTESIAN_POINT ( 'NONE',  ( 0.000000000000000000, 0.000000000000000000, 3.000000000000000000 ) ) ;
#65 = LOCAL_TIME ( 12, 21, 34.00000000000000000, #247 ) ;
#66 = DIRECTION ( 'NONE',  ( 0.000000000000000000, 0.000000000000000000, 1.000000000000000000 ) ) ;
#67 = CARTESIAN_POINT ( 'NONE',  ( 0.000000000000000000, 0.000000000000000000, 318.0000000000000000 ) ) ;
#68 = APPLICATION_PROTOCOL_DEFINITION ( 'international standard', 'config_control_design', 1994, #271 ) ;
#69 = CIRCLE ( 'NONE', #242, 4.000000000000000000 ) ;
#70 = LINE ( 'NONE', #143, #185 ) ;
#71 = DIRECTION ( 'NONE',  ( 0.000000000000000000, 0.000000000000000000, 1.000000000000000000 ) ) ;
#72 = EDGE_CURVE ( 'NONE', #112, #228, #163, .T. ) ;
#73 = CARTESIAN_POINT ( 'NONE',  ( -2.449999999999999734, 3.000384657911015370E-16, 2.999999999999990674 ) ) ;
#74 = EDGE_CURVE ( 'NONE', #228, #112, #281, .T. ) ;
#75 = AXIS2_PLACEMENT_3D ( 'NONE', #76, #121, #7 ) ;
#76 = CARTESIAN_POINT ( 'NONE',  ( 0.000000000000000000, 0.000000000000000000, 3.000000000000000000 ) ) ;
#77 = PRODUCT_DEFINITION_SHAPE ( 'NONE', 'NONE',  #3 ) ;
#78 = ORIENTED_EDGE ( 'NONE', *, *, #124, .F. ) ;
#79 = COORDINATED_UNIVERSAL_TIME_OFFSET ( 1, 0, .AHEAD. ) ;
#80 = EDGE_CURVE ( 'NONE', #248, #272, #258, .T. ) ;
#81 = ORIENTED_EDGE ( 'NONE', *, *, #80, .T. ) ;
#82 = APPROVAL_STATUS ( 'not_yet_approved' ) ;
#83 = CLOSED_SHELL ( 'NONE', ( #181, #151, #18, #131, #196, #21, #191, #138, #292 ) ) ;
#84 = ORIENTED_EDGE ( 'NONE', *, *, #74, .F. ) ;
#85 = APPLICATION_PROTOCOL_DEFINITION ( 'international standard', 'config_control_design', 1994, #111 ) ;
#86 = EDGE_CURVE ( 'NONE', #10, #112, #40, .T. ) ;
#87 = CC_DESIGN_DATE_AND_TIME_ASSIGNMENT ( #225, #126, ( #3 ) ) ;
#88 = DIRECTION ( 'NONE',  ( 1.000000000000000000, 0.000000000000000000, 0.000000000000000000 ) ) ;
#89 = CC_DESIGN_APPROVAL ( #43, ( #229 ) ) ;
#90 = PRODUCT ( 'c4bb', 'c4bb', '', ( #256 ) ) ;
#91 = CARTESIAN_POINT ( 'NONE',  ( 0.000000000000000000, 0.000000000000000000, 0.000000000000000000 ) ) ;
#92 = ORIENTED_EDGE ( 'NONE', *, *, #125, .T. ) ;
#93 = APPROVAL ( #9, 'NEURÈENÝ' ) ;
#94 = DIRECTION ( 'NONE',  ( 0.000000000000000000, 0.000000000000000000, -1.000000000000000000 ) ) ;
#95 = LOCAL_TIME ( 12, 21, 34.00000000000000000, #146 ) ;
#96 = DIRECTION ( 'NONE',  ( -0.000000000000000000, -0.000000000000000000, -1.000000000000000000 ) ) ;
#97 = DIRECTION ( 'NONE',  ( -0.000000000000000000, -0.000000000000000000, -1.000000000000000000 ) ) ;
#98 = EDGE_CURVE ( 'NONE', #257, #106, #275, .T. ) ;
#99 = DIRECTION ( 'NONE',  ( 1.000000000000000000, 0.000000000000000000, 0.000000000000000000 ) ) ;
#100 = CC_DESIGN_PERSON_AND_ORGANIZATION_ASSIGNMENT ( #253, #38, ( #45 ) ) ;
#101 = CARTESIAN_POINT ( 'NONE',  ( 0.000000000000000000, 0.000000000000000000, 0.000000000000000000 ) ) ;
#102 = AXIS2_PLACEMENT_3D ( 'NONE', #64, #260, #62 ) ;
#103 = CARTESIAN_POINT ( 'NONE',  ( 2.250000000000000000, 2.755455298081544285E-16, 3.199999999999980638 ) ) ;
#104 = TOROIDAL_SURFACE ( 'NONE', #28, 2.449999999999999734, 0.2000000000000000111 ) ;
#105 = APPROVAL_DATE_TIME ( #149, #198 ) ;
#106 = VERTEX_POINT ( 'NONE', #161 ) ;
#107 = ORIENTED_EDGE ( 'NONE', *, *, #98, .F. ) ;
#108 = PERSON_AND_ORGANIZATION_ROLE ( 'creator' ) ;
#109 = VERTEX_POINT ( 'NONE', #182 ) ;
#110 = APPROVAL_ROLE ( '' ) ;
#111 = APPLICATION_CONTEXT ( 'configuration controlled 3d designs of mechanical parts and assemblies' ) ;
#112 = VERTEX_POINT ( 'NONE', #158 ) ;
#113 = CC_DESIGN_SECURITY_CLASSIFICATION ( #45, ( #229 ) ) ;
#114 = DIRECTION ( 'NONE',  ( 0.000000000000000000, 0.000000000000000000, 1.000000000000000000 ) ) ;
#115 = DIRECTION ( 'NONE',  ( 0.000000000000000000, 0.000000000000000000, 1.000000000000000000 ) ) ;
#116 = DIRECTION ( 'NONE',  ( 1.000000000000000000, 0.000000000000000000, -0.000000000000000000 ) ) ;
#117 = CARTESIAN_POINT ( 'NONE',  ( 0.000000000000000000, 0.000000000000000000, 3.000000000000000000 ) ) ;
#118 = CIRCLE ( 'NONE', #167, 0.2000000000000000944 ) ;
#119 = CARTESIAN_POINT ( 'NONE',  ( -2.250000000000000000, 0.000000000000000000, 318.0000000000000000 ) ) ;
#120 = AXIS2_PLACEMENT_3D ( 'NONE', #183, #115, #116 ) ;
#121 = DIRECTION ( 'NONE',  ( -0.000000000000000000, -0.000000000000000000, -1.000000000000000000 ) ) ;
#122 = DIRECTION ( 'NONE',  ( 0.000000000000000000, 0.000000000000000000, 1.000000000000000000 ) ) ;
#123 = PERSON_AND_ORGANIZATION_ROLE ( 'design_supplier' ) ;
#124 = EDGE_CURVE ( 'NONE', #150, #228, #259, .T. ) ;
#125 = EDGE_CURVE ( 'NONE', #228, #109, #157, .T. ) ;
#126 = DATE_TIME_ROLE ( 'creation_date' ) ;
#127 = ORIENTED_EDGE ( 'NONE', *, *, #232, .F. ) ;
#128 = AXIS2_PLACEMENT_3D ( 'NONE', #209, #114, #307 ) ;
#129 = ORIENTED_EDGE ( 'NONE', *, *, #249, .T. ) ;
#130 = EDGE_LOOP ( 'NONE', ( #177, #84, #92, #179 ) ) ;
#131 = ADVANCED_FACE ( 'NONE', ( #136 ), #287, .T. ) ;
#132 = ORIENTED_EDGE ( 'NONE', *, *, #125, .F. ) ;
#133 = DIRECTION ( 'NONE',  ( -1.000000000000000000, 0.000000000000000000, 0.000000000000000000 ) ) ;
#134 = FACE_OUTER_BOUND ( 'NONE', #279, .T. ) ;
#135 = CC_DESIGN_PERSON_AND_ORGANIZATION_ASSIGNMENT ( #199, #108, ( #229 ) ) ;
#136 = FACE_OUTER_BOUND ( 'NONE', #60, .T. ) ;
#137 = ORIENTED_EDGE ( 'NONE', *, *, #268, .T. ) ;
#138 = ADVANCED_FACE ( 'NONE', ( #17 ), #285, .T. ) ;
#139 = CARTESIAN_POINT ( 'NONE',  ( 0.000000000000000000, 0.000000000000000000, 318.0000000000000000 ) ) ;
#140 = EDGE_CURVE ( 'NONE', #173, #109, #255, .T. ) ;
#141 = APPROVAL_PERSON_ORGANIZATION ( #32, #198, #110 ) ;
#142 = DIRECTION ( 'NONE',  ( -0.000000000000000000, -0.000000000000000000, -1.000000000000000000 ) ) ;
#143 = CARTESIAN_POINT ( 'NONE',  ( 4.000000000000000000, 4.898587196589412829E-16, 3.000000000000000000 ) ) ;
#144 = CARTESIAN_POINT ( 'NONE',  ( 0.000000000000000000, 0.000000000000000000, 318.0000000000000000 ) ) ;
#145 = VECTOR ( 'NONE', #188, 1000.000000000000000 ) ;
#146 = COORDINATED_UNIVERSAL_TIME_OFFSET ( 1, 0, .AHEAD. ) ;
#147 = CALENDAR_DATE ( 2022, 7, 7 ) ;
#148 = ORIENTED_EDGE ( 'NONE', *, *, #169, .T. ) ;
#149 = DATE_AND_TIME ( #197, #298 ) ;
#150 = VERTEX_POINT ( 'NONE', #165 ) ;
#151 = ADVANCED_FACE ( 'NONE', ( #264 ), #44, .T. ) ;
#152 = PERSON_AND_ORGANIZATION_ROLE ( 'creator' ) ;
#153 = CC_DESIGN_PERSON_AND_ORGANIZATION_ASSIGNMENT ( #54, #152, ( #3 ) ) ;
#154 = LOCAL_TIME ( 12, 21, 34.00000000000000000, #276 ) ;
#155 = PERSON_AND_ORGANIZATION ( #246, #293 ) ;
#156 = ORIENTED_EDGE ( 'NONE', *, *, #86, .T. ) ;
#157 = CIRCLE ( 'NONE', #189, 0.2000000000000000944 ) ;
#158 = CARTESIAN_POINT ( 'NONE',  ( -2.250000000000000000, 0.000000000000000000, 3.199999999999980638 ) ) ;
#159 = DIRECTION ( 'NONE',  ( 1.000000000000000000, 0.000000000000000000, 0.000000000000000000 ) ) ;
#160 = AXIS2_PLACEMENT_3D ( 'NONE', #101, #265, #99 ) ;
#161 = CARTESIAN_POINT ( 'NONE',  ( 4.000000000000000000, 4.898587196589412829E-16, 0.000000000000000000 ) ) ;
#162 = DIRECTION ( 'NONE',  ( 0.000000000000000000, 0.000000000000000000, 1.000000000000000000 ) ) ;
#163 = CIRCLE ( 'NONE', #291, 2.250000000000000000 ) ;
#164 = EDGE_CURVE ( 'NONE', #248, #257, #233, .T. ) ;
#165 = CARTESIAN_POINT ( 'NONE',  ( 2.250000000000000000, 2.755455298081544285E-16, 318.0000000000000000 ) ) ;
#166 = CARTESIAN_POINT ( 'NONE',  ( 0.000000000000000000, 0.000000000000000000, 318.0000000000000000 ) ) ;
#167 = AXIS2_PLACEMENT_3D ( 'NONE', #190, #214, #171 ) ;
#168 = VECTOR ( 'NONE', #97, 1000.000000000000000 ) ;
#169 = EDGE_CURVE ( 'NONE', #272, #248, #69, .T. ) ;
#170 = DIRECTION ( 'NONE',  ( -0.000000000000000000, -0.000000000000000000, -1.000000000000000000 ) ) ;
#171 = DIRECTION ( 'NONE',  ( -1.000000000000000000, 1.224646799147353207E-16, 0.000000000000000000 ) ) ;
#172 = CARTESIAN_POINT ( 'NONE',  ( 0.000000000000000000, 0.000000000000000000, 3.199999999999980638 ) ) ;
#173 = VERTEX_POINT ( 'NONE', #73 ) ;
#174 = ADVANCED_BREP_SHAPE_REPRESENTATION ( 'c4bb', ( #23, #284 ), #261 ) ;
#175 = PERSON_AND_ORGANIZATION_ROLE ( 'design_owner' ) ;
#176 = PERSON_AND_ORGANIZATION ( #246, #293 ) ;
#177 = ORIENTED_EDGE ( 'NONE', *, *, #288, .F. ) ;
#178 = CALENDAR_DATE ( 2022, 7, 7 ) ;
#179 = ORIENTED_EDGE ( 'NONE', *, *, #140, .F. ) ;
#180 = CIRCLE ( 'NONE', #160, 4.000000000000000000 ) ;
#181 = ADVANCED_FACE ( 'NONE', ( #241 ), #104, .F. ) ;
#182 = CARTESIAN_POINT ( 'NONE',  ( 2.449999999999999734, 0.000000000000000000, 2.999999999999990674 ) ) ;
#183 = CARTESIAN_POINT ( 'NONE',  ( 0.000000000000000000, 0.000000000000000000, 0.000000000000000000 ) ) ;
#184 = FACE_OUTER_BOUND ( 'NONE', #274, .T. ) ;
#185 = VECTOR ( 'NONE', #170, 1000.000000000000000 ) ;
#186 = PLANE ( 'NONE',  #120 ) ;
#187 = CC_DESIGN_DATE_AND_TIME_ASSIGNMENT ( #56, #203, ( #45 ) ) ;
#188 = DIRECTION ( 'NONE',  ( -0.000000000000000000, -0.000000000000000000, -1.000000000000000000 ) ) ;
#189 = AXIS2_PLACEMENT_3D ( 'NONE', #263, #41, #94 ) ;
#190 = CARTESIAN_POINT ( 'NONE',  ( -2.449999999999999734, 3.000384657911015370E-16, 3.199999999999980638 ) ) ;
#191 = ADVANCED_FACE ( 'NONE', ( #48 ), #220, .T. ) ;
#192 = DIRECTION ( 'NONE',  ( 0.000000000000000000, 0.000000000000000000, 1.000000000000000000 ) ) ;
#193 =( NAMED_UNIT ( * ) SI_UNIT ( $, .STERADIAN. ) SOLID_ANGLE_UNIT ( ) );
#194 = CARTESIAN_POINT ( 'NONE',  ( -4.000000000000000000, 0.000000000000000000, 3.000000000000000000 ) ) ;
#195 = TOROIDAL_SURFACE ( 'NONE', #49, 2.449999999999999734, 0.2000000000000000111 ) ;
#196 = ADVANCED_FACE ( 'NONE', ( #239, #30 ), #47, .T. ) ;
#197 = CALENDAR_DATE ( 2022, 7, 7 ) ;
#198 = APPROVAL ( #223, 'NEURÈENÝ' ) ;
#199 = PERSON_AND_ORGANIZATION ( #246, #293 ) ;
#200 = ORIENTED_EDGE ( 'NONE', *, *, #164, .F. ) ;
#201 = ORIENTED_EDGE ( 'NONE', *, *, #80, .F. ) ;
#202 = EDGE_LOOP ( 'NONE', ( #78, #35, #156, #224 ) ) ;
#203 = DATE_TIME_ROLE ( 'classification_date' ) ;
#204 = ORIENTED_EDGE ( 'NONE', *, *, #140, .T. ) ;
#205 = ORIENTED_EDGE ( 'NONE', *, *, #15, .T. ) ;
#206 = APPROVAL_PERSON_ORGANIZATION ( #155, #93, #250 ) ;
#207 = CARTESIAN_POINT ( 'NONE',  ( -2.250000000000000000, 0.000000000000000000, 318.0000000000000000 ) ) ;
#208 = AXIS2_PLACEMENT_3D ( 'NONE', #283, #96, #1 ) ;
#209 = CARTESIAN_POINT ( 'NONE',  ( 0.000000000000000000, 0.000000000000000000, 3.199999999999980638 ) ) ;
#210 = DIRECTION ( 'NONE',  ( -0.000000000000000000, -0.000000000000000000, -1.000000000000000000 ) ) ;
#211 = AXIS2_PLACEMENT_3D ( 'NONE', #117, #282, #212 ) ;
#212 = DIRECTION ( 'NONE',  ( 1.000000000000000000, 0.000000000000000000, 0.000000000000000000 ) ) ;
#213 = AXIS2_PLACEMENT_3D ( 'NONE', #2, #237, #19 ) ;
#214 = DIRECTION ( 'NONE',  ( 1.224646799147353207E-16, 1.000000000000000000, -0.000000000000000000 ) ) ;
#215 = DESIGN_CONTEXT ( 'detailed design', #111, 'design' ) ;
#216 = CARTESIAN_POINT ( 'NONE',  ( -4.000000000000000000, 0.000000000000000000, 0.000000000000000000 ) ) ;
#217 = AXIS2_PLACEMENT_3D ( 'NONE', #139, #24, #133 ) ;
#218 = FACE_OUTER_BOUND ( 'NONE', #130, .T. ) ;
#219 = AXIS2_PLACEMENT_3D ( 'NONE', #91, #162, #159 ) ;
#220 = CYLINDRICAL_SURFACE ( 'NONE', #53, 2.250000000000000000 ) ;
#221 = CALENDAR_DATE ( 2022, 7, 7 ) ;
#222 = CC_DESIGN_APPROVAL ( #93, ( #45 ) ) ;
#223 = APPROVAL_STATUS ( 'not_yet_approved' ) ;
#224 = ORIENTED_EDGE ( 'NONE', *, *, #72, .T. ) ;
#225 = DATE_AND_TIME ( #178, #154 ) ;
#226 = ORIENTED_EDGE ( 'NONE', *, *, #124, .T. ) ;
#227 = DIRECTION ( 'NONE',  ( 0.000000000000000000, 0.000000000000000000, 1.000000000000000000 ) ) ;
#228 = VERTEX_POINT ( 'NONE', #103 ) ;
#229 = PRODUCT_DEFINITION_FORMATION_WITH_SPECIFIED_SOURCE ( 'LIBOVOLNÝ', '', #90, .NOT_KNOWN. ) ;
#230 = SHAPE_DEFINITION_REPRESENTATION ( #77, #174 ) ;
#231 = EDGE_LOOP ( 'NONE', ( #252, #205 ) ) ;
#232 = EDGE_CURVE ( 'NONE', #272, #106, #70, .T. ) ;
#233 = LINE ( 'NONE', #16, #168 ) ;
#234 = LOCAL_TIME ( 12, 21, 34.00000000000000000, #79 ) ;
#235 = DIRECTION ( 'NONE',  ( -1.000000000000000000, 0.000000000000000000, 0.000000000000000000 ) ) ;
#236 = CYLINDRICAL_SURFACE ( 'NONE', #208, 4.000000000000000000 ) ;
#237 = DIRECTION ( 'NONE',  ( 0.000000000000000000, 0.000000000000000000, 1.000000000000000000 ) ) ;
#238 = DIRECTION ( 'NONE',  ( 0.000000000000000000, 0.000000000000000000, 1.000000000000000000 ) ) ;
#239 = FACE_BOUND ( 'NONE', #20, .T. ) ;
#240 = DIRECTION ( 'NONE',  ( 0.000000000000000000, 0.000000000000000000, 1.000000000000000000 ) ) ;
#241 = FACE_OUTER_BOUND ( 'NONE', #11, .T. ) ;
#242 = AXIS2_PLACEMENT_3D ( 'NONE', #243, #240, #50 ) ;
#243 = CARTESIAN_POINT ( 'NONE',  ( 0.000000000000000000, 0.000000000000000000, 3.000000000000000000 ) ) ;
#244 = PRODUCT_RELATED_PRODUCT_CATEGORY ( 'detail', '', ( #90 ) ) ;
#245 = DIRECTION ( 'NONE',  ( 0.000000000000000000, 0.000000000000000000, 1.000000000000000000 ) ) ;
#246 = PERSON ( 'NEURÈENÝ', 'NEURÈENÝ', 'NEURÈENÝ', ('NEURÈENÝ'), ('NEURÈENÝ'), ('NEURÈENÝ') ) ;
#247 = COORDINATED_UNIVERSAL_TIME_OFFSET ( 1, 0, .AHEAD. ) ;
#248 = VERTEX_POINT ( 'NONE', #194 ) ;
#249 = EDGE_CURVE ( 'NONE', #109, #173, #22, .T. ) ;
#250 = APPROVAL_ROLE ( '' ) ;
#251 = ORIENTED_EDGE ( 'NONE', *, *, #232, .T. ) ;
#252 = ORIENTED_EDGE ( 'NONE', *, *, #286, .T. ) ;
#253 = PERSON_AND_ORGANIZATION ( #246, #293 ) ;
#254 = ORIENTED_EDGE ( 'NONE', *, *, #249, .F. ) ;
#255 = CIRCLE ( 'NONE', #211, 2.449999999999999734 ) ;
#256 = MECHANICAL_CONTEXT ( 'NONE', #271, 'mechanical' ) ;
#257 = VERTEX_POINT ( 'NONE', #216 ) ;
#258 = CIRCLE ( 'NONE', #102, 4.000000000000000000 ) ;
#259 = LINE ( 'NONE', #262, #145 ) ;
#260 = DIRECTION ( 'NONE',  ( 0.000000000000000000, 0.000000000000000000, 1.000000000000000000 ) ) ;
#261 =( GEOMETRIC_REPRESENTATION_CONTEXT ( 3 ) GLOBAL_UNCERTAINTY_ASSIGNED_CONTEXT ( ( #5 ) ) GLOBAL_UNIT_ASSIGNED_CONTEXT ( ( #6, #289, #193 ) ) REPRESENTATION_CONTEXT ( 'NONE', 'WORKASPACE' ) );
#262 = CARTESIAN_POINT ( 'NONE',  ( 2.250000000000000000, 2.755455298081544285E-16, 318.0000000000000000 ) ) ;
#263 = CARTESIAN_POINT ( 'NONE',  ( 2.449999999999999734, 0.000000000000000000, 3.199999999999980638 ) ) ;
#264 = FACE_OUTER_BOUND ( 'NONE', #63, .T. ) ;
#265 = DIRECTION ( 'NONE',  ( 0.000000000000000000, 0.000000000000000000, 1.000000000000000000 ) ) ;
#266 = CARTESIAN_POINT ( 'NONE',  ( 0.000000000000000000, 0.000000000000000000, 3.000000000000000000 ) ) ;
#267 = CARTESIAN_POINT ( 'NONE',  ( 4.000000000000000000, 4.898587196589412829E-16, 3.000000000000000000 ) ) ;
#268 = EDGE_CURVE ( 'NONE', #106, #257, #180, .T. ) ;
#269 = DIRECTION ( 'NONE',  ( -1.000000000000000000, 0.000000000000000000, 0.000000000000000000 ) ) ;
#270 = VECTOR ( 'NONE', #306, 1000.000000000000000 ) ;
#271 = APPLICATION_CONTEXT ( 'configuration controlled 3d designs of mechanical parts and assemblies' ) ;
#272 = VERTEX_POINT ( 'NONE', #267 ) ;
#273 = COORDINATED_UNIVERSAL_TIME_OFFSET ( 1, 0, .AHEAD. ) ;
#274 = EDGE_LOOP ( 'NONE', ( #107, #52 ) ) ;
#275 = CIRCLE ( 'NONE', #219, 4.000000000000000000 ) ;
#276 = COORDINATED_UNIVERSAL_TIME_OFFSET ( 1, 0, .AHEAD. ) ;
#277 = EDGE_LOOP ( 'NONE', ( #81, #148 ) ) ;
#278 = PERSON_AND_ORGANIZATION ( #246, #293 ) ;
#279 = EDGE_LOOP ( 'NONE', ( #58, #251, #137, #200 ) ) ;
#280 = ORIENTED_EDGE ( 'NONE', *, *, #164, .T. ) ;
#281 = CIRCLE ( 'NONE', #128, 2.250000000000000000 ) ;
#282 = DIRECTION ( 'NONE',  ( -0.000000000000000000, -0.000000000000000000, -1.000000000000000000 ) ) ;
#283 = CARTESIAN_POINT ( 'NONE',  ( 0.000000000000000000, 0.000000000000000000, 3.000000000000000000 ) ) ;
#284 = AXIS2_PLACEMENT_3D ( 'NONE', #302, #227, #12 ) ;
#285 = PLANE ( 'NONE',  #36 ) ;
#286 = EDGE_CURVE ( 'NONE', #10, #150, #33, .T. ) ;
#287 = CYLINDRICAL_SURFACE ( 'NONE', #290, 4.000000000000000000 ) ;
#288 = EDGE_CURVE ( 'NONE', #112, #173, #118, .T. ) ;
#289 =( NAMED_UNIT ( * ) PLANE_ANGLE_UNIT ( ) SI_UNIT ( $, .RADIAN. ) );
#290 = AXIS2_PLACEMENT_3D ( 'NONE', #42, #210, #235 ) ;
#291 = AXIS2_PLACEMENT_3D ( 'NONE', #304, #238, #88 ) ;
#292 = ADVANCED_FACE ( 'NONE', ( #218 ), #195, .F. ) ;
#293 = ORGANIZATION ( 'NEURÈENÝ', 'NEURÈENÝ', '' ) ;
#294 = PERSON_AND_ORGANIZATION ( #246, #293 ) ;
#295 = APPROVAL_DATE_TIME ( #34, #93 ) ;
#296 = ORIENTED_EDGE ( 'NONE', *, *, #74, .T. ) ;
#297 = APPROVAL_ROLE ( '' ) ;
#298 = LOCAL_TIME ( 12, 21, 34.00000000000000000, #273 ) ;
#299 = APPROVAL_DATE_TIME ( #51, #43 ) ;
#300 = ORIENTED_EDGE ( 'NONE', *, *, #72, .F. ) ;
#301 = CC_DESIGN_PERSON_AND_ORGANIZATION_ASSIGNMENT ( #278, #123, ( #229 ) ) ;
#302 = CARTESIAN_POINT ( 'NONE',  ( 0.000000000000000000, 0.000000000000000000, 0.000000000000000000 ) ) ;
#303 = ORIENTED_EDGE ( 'NONE', *, *, #288, .T. ) ;
#304 = CARTESIAN_POINT ( 'NONE',  ( 0.000000000000000000, 0.000000000000000000, 3.199999999999980638 ) ) ;
#305 = AXIS2_PLACEMENT_3D ( 'NONE', #166, #122, #27 ) ;
#306 = DIRECTION ( 'NONE',  ( -0.000000000000000000, -0.000000000000000000, -1.000000000000000000 ) ) ;
#307 = DIRECTION ( 'NONE',  ( 1.000000000000000000, 0.000000000000000000, 0.000000000000000000 ) ) ;
ENDSEC;
END-ISO-10303-21;
